a b c d e f g h i j k l m n o p q r s t u v w x y z 0-9

Profugos

Soda Stereo

			
CANCION PROFUGOS - SODA ESTEREO    by Leik-->

E|?-2--|
B|?-2--|
G|?-4--|
D|?-4--|
A|?-4--|
E|?-2--|


E|----------------------------------------------|   |----------------------------------------------|
B|----------------------------------------------|   |----------------------------------------------|
G|----------------------------------------------|   |--------------6?4--------------------6?4------|
D|--------------6?4--------------------6?4------|   |-----5?4?2?4-------5?7-------5?4?2?4------5?7-|
A|-----5?4?2?4-------5?7-------5?4?2?4------5?7-|   |--0----------------------0--------------------|
E|--0----------------------0--------------------|x2 |----------------------------------------------|x2


E|----|--5-|-5-|--------------|----12----12/14-|----------7-|-----------------------|-5-|-5-| |--------------------||  |-7---|  |----|
B|-10-|--7-|-5-|-----------10-|-12----12-------|----------7-|--------10---10--8-7-5-|-7-|-5-| |--------------------||  |--7--|  |-7--|
G|-0--|--7-|-7-|-----0--0--0--|----------------|----------7-|-----11----11----------|-7-|-7-| |-----------11-11----||  |---9-|  |--9-|
D|-9--|--7-|-7-|-9---9--9--9--|----------------|-9-9-9-9--9-|---9-------------------|-7-|-7-| |-------9-9------9-9-||  |-----|  |----|
A|-10-|--5-|-5-|-10--10-10-10-|----------------|-9-9-9-9--9-|-10--------------------|-5-|-5-| |-10-10--------------||  |-----|  |----|
E|----|--5-|---|--------------|----------------|-7-7-7-7----|-----------------------|-5-|---| |--------------------||x2|-----|x3|----|


E|-----5--5-|------------------12---12/14----------7-|----------------------|-5-|-5-|-5-|-5-| |--------------------||  |-7---|   |---|
B|-10--7--5-|-----------10--12---12----------------7-|--------10--10--8-7-5-|-7-|-5-|-8-|-7-| |--------------------||  |--7--|   |7--|
G|-0---7--7-|-----0--0--0--------------------------7-|-----11---11----------|-7-|-7-|-7-|-7-| |-----------11-11----||  |---9-|   |-9-|
D|-9---7--7-|-9---9--9--9-----------------9-9-9-9--9-|---9------------------|-7-|-7-|-7-|-7-| |-------9-9------9-9-||  |-----|   |---|
A|-10--5--5-|-10--10-10-10----------------9-9-9-9--9-|-10-------------------|-5-|-5-|-5-|-5-| |-10-10--------------||  |-----|   |---|
E|-----5----|-----------------------------7-7-7-7----|----------------------|-5-|---|-5-|---| |--------------------||x2|-----|x3 |---|


E|-5--5--5-5-|-5--5--5-5-|-7--7--7-7-|-7--7--7-7-|-5--5--5-5-|-5--5--5-5-|-7--7--7-7-|-7--7----| |---------||   ||-------||
B|-7--7--7-7-|-5--5--5-5-|-8--8--8-8-|-7--7--7-7-|-7--7--7-7-|-5--5--5-5-|-8--8--8-8-|-8--8----| |-7----7--||   ||-7---7-||
G|-7--7--7-7-|-5--5--5-5-|-9--9--9-9-|-7--7--7-7-|-7--7--7-7-|-5--5--5-5-|-9--9--9-9-|-7--9--4/| |--9--9-9-||   ||--9-9-9||
D|-7--7--7-7-|-7--7--7-7-|-9--9--9-9-|-9--9--9-9-|-7--7--7-7-|-7--7--7-7-|-9--9--9-9-|-9--10---| |---9-----||   ||---7---||
A|-5--5------|-7--7------|-7--7------|-9--9------|-5--5------|-7--7------|-7--7------|-10------| |---------||   ||-------||
E|-----------|-----------|-----------|-----------|-----------|-----------|-----------|---------| |---------||x2 ||-------||x2


E|---------||   ||-------||   |---------||   ||-------|-------|
B|-7----7--||   ||-7---7-||   |-7----7--||   ||-7---7-|-7-----|
G|--9--9-9-||   ||--9-9-9||   |--9--9-9-||   ||--9-9-9|-------|  
D|---9-----||   ||---7---||   |---9-----||   ||---7---|-------|
A|---------||   ||-------||   |---------||   ||-------|-------|
E|---------||x2 ||-------||x2 |---------||x2 ||-------|-------|


E|---------------------|-------------------------------10-8-------------|-------------------------------------6-6-6--7-7-8-|
B|--------11~/20~--20\-|-----------------------------8------11-10-------|-------------------------------------3-3-3--4-4-5-|
G|--9~----10~/19~------|-0-0p3-0---0--3p0-3p0------0---7---------10-----|--0-3p2p0h2p-0-------------0h2h3h4h--3-3-3--4-4-5-|
D|---------------------|---------0-------------3~--0---------------10~--|---------------3p2p0h2h3--------------------------|
A|--7~-----------------|------------------------------------------------|--------------------------------------------------|
E|-----3---------------|------------------------------------------------|--------------------------------------------------|


E|-5--|-5--5--5-5-|-7--7--7-7-|-7--7--7-7-|-5--5--5-5-|-5--5--5-5-|-7--7--7-7-|-7--7--7--7---7--7-----| 
B|-7--|-5--5--5-5-|-8--8--8-8-|-7--7--7-7-|-7--7--7-7-|-5--5--5-5-|-8--8--8-8-|-8--8--8--8---8--8-----| 
G|-7--|-5--5--5-5-|-9--9--9-9-|-7--7--7-7-|-7--7--7-7-|-5--5--5-5-|-9--9--9-9-|-7--7--7--7---7--7-----| 
D|-7--|-7--7--7-7-|-9--9--9-9-|-9--9--9-9-|-7--7--7-7-|-7--7--7-7-|-9--9--9-9-|-9--9--9--9---9--9-----|
A|-5--|-7--7------|-7--7------|-9--9------|-5--5------|-7--7------|-7--7------|-10-10-10-10--10-10----|
E|----|-----------|-----------|-----------|-----------|-----------|-----------|-----------------------|
  
E|-5--5--5-5-|-5--5--5-5-|-7--7--7-7-|-7--7--7-7-|-5--5--5-5-|-5--5--5-5-|-7--7--7-7-|-7--7--7--7---7--7-----| 
B|-7--7--7-7-|-5--5--5-5-|-8--8--8-8-|-7--7--7-7-|-7--7--7-7-|-5--5--5-5-|-8--8--8-8-|-8--8--8--8---8--8-----| 
G|-7--7--7-7-|-5--5--5-5-|-9--9--9-9-|-7--7--7-7-|-7--7--7-7-|-5--5--5-5-|-9--9--9-9-|-7--7--7--7---7--7-----| 
D|-7--7--7-7-|-7--7--7-7-|-9--9--9-9-|-9--9--9-9-|-7--7--7-7-|-7--7--7-7-|-9--9--9-9-|-9--9--9--9---9--9-----|
A|-5--5------|-7--7------|-7--7------|-9--9------|-5--5------|-7--7------|-7--7------|-10-10-10-10--10-10----|
E|-----------|-----------|-----------|-----------|-----------|-----------|-----------|-----------------------|
  
E|-5--5--5-5-|-5--5--5-5-|-7--7--7-7-|-7--7--7-7-|-5--5--5-5-|-5--5--5-5-|-7--|-7--7--7--7---7--7--7--7--7---| 
B|-7--7--7-7-|-5--5--5-5-|-8--8--8-8-|-7--7--7-7-|-7--7--7-7-|-5--5--5-5-|-8--|-7--8--7--8---7--8--7--8--7---| 
G|-7--7--7-7-|-5--5--5-5-|-9--9--9-9-|-7--7--7-7-|-7--7--7-7-|-5--5--5-5-|-9--|-7--9--7--9---7--9--7--9--7---| 
D|-7--7--7-7-|-7--7--7-7-|-9--9--9-9-|-9--9--9-9-|-7--7--7-7-|-7--7--7-7-|-9--|-9--10-9--10--9--10-9--10-9---|
A|-5--5------|-7--7------|-7--7------|-9--9------|-5--5------|-7--7------|-7--|-10----10-----10----10----10--|
E|-----------|-----------|-----------|-----------|-----------|-----------|----|------------------------------|  


ESPERO QUE LES AYUDE!!

Fuente: Tusacordes