a b c d e f g h i j k l m n o p q r s t u v w x y z 0-9

Profugos

Soda Stereo

			
1/-----------------------------------------------
2/-----------------------------------------------
3/-----------------------------------------------
4/---0 ---0 -0 ---3 ---5 ---3 ---5-------------

1/-----------------------------------------------
2/-----------------------------------------------
3/-----------------------------------------------
4/---0 ---0 -0 ---3 ---5 ---3 ---5-------------

1/-----------------------------------------------
2/-----------------------------------------------
3/-----------------------------------------------
4/---0 ---0 ---2 ---2 ---0 ---0 ---2 ---0------

1/-----------------------------------------------
2/-----------------------------------------------
3/-----------------------------------------------
4/---5 ---3 ---0 ---3 ---5 ---3 ---5 ---5------

1/-----------------------------------------------
2/-----------------------------------------------
3/--------------5x 16---7x 16-------------
4/---3x 16------------------------7x 16---

1/-----------------------------------------------
2/-----------------------------------------------
3/---------------5x 16---7x 16---9x 16             
4/---3x 16-----------------------------------

1/-----------------------------------------------
2/-----------------------------------------------
3/-----------------------------------------------
4/---0 ---0 ---2 ---2 ---0 ---0 ---2 ---0------

1/-----------------------------------------------
2/-----------------------------------------------
3/-----------------------------------------------
4/---5 ---3 ---0 ---3 ---5 ---3 ---5 ---5------


1/-----------------------------------------------
2/-----------------------------------------------
3/--------------5x 16---7x 16-------------
4/---3x 16------------------------7x 16---

1/-----------------------------------------------
2/-----------------------------------------------
3/---------------5x 16---7x 16---9x 16             
4/---3x 16-----------------------------------


1/-----------------------------------------------
2/-------------7x 8---------------------------
3/---5x 8------------7x 8-----------------
4/--------------------------------7x 8--------

1/-------------------------------------------------------
2/-------------7x 8-----------------------------------
3/---5x 8------------7x 8-----------3x 16---3/5
4/--------------------------------3x 8----------------

Se Repite Intro, estrofa y coro

1/-----------------------------------------------
2/-----------------------------------------------
3/-----------------------------------------------
4/---0 ---0 ---2 ---2 ---0 ---0 ---2 ---0------

1/-----------------------------------------------
2/------------------------------------------6/9-
3/-----------------------------------5--6-------
4/---5 ---3 ---0 ---3 ---5 --------------------

1/-----------------------------------------------
2/-----------------------------------------------
3/-----------------------------------------------
4/---0 ---0 ---2 ---2 ---0 ---0 ---2 ---0------

1/-----------------------------------------------
2/-----------------------------------------------
3/-----------------------------------------------
4/---5 ---3 ---0 ---3 ---5 ---3 ---5 ---5------

1/-----------------------------------------------
2/-----------------------------------------------
3/-----------------------------------------------
4/---3x 32---1---3x 32-------------------

Intro, Coro.

1/---------------9---7-------9---7---5--------
2/---5------5-----------5---------------/5-----
3/-------3--------------------------------------
4/-----------------------------------------------

Fuente original ATAME [www.atame.org]
Colaborador original: ]

Fuente: tusacordes.com