a b c d e f g h i j k l m n o p q r s t u v w x y z 0-9

Primavera 0

Soda Stereo

			
Algo de la fuerza de SODA STEREO una buena cancion

Empieza la guitarra sola luego entra el bajo y la bateria.

versos

g|-5-5-5-5-5-5-5-5-|-4-4-4-4-4-4-4-4-|-3-3-3-3-3-3-3-3-|
d|-----------------|-----------------|-----------------|
a|-----------------|-----------------|-----------------|
e|-----------------|-----------------|-----------------|

g|-2-2-2-2-2-2-2-2-|-----------------|-----------------|
d|-----------------|-6-6-6-6-6-6-6-6-|-5-5-5-5-5-5-5-5-|
a|-----------------|-----------------|-----------------|
e|-----------------|-----------------|-----------------|

g|-----------------|-----------------|-----------------|
d|-3-3-3-3-3-3-3-3-|-2-2-2-2-2-2-2-2-|-----------------|
a|-----------------|-----------------|-6-6-6-6-6-6-6-6-|
e|-----------------|-----------------|-----------------|

g|-----------------|-----------------|-----------------|
d|-----------------|-----------------|-----------------|
a|-5-5-5-5-5-5-5-5-|-3-3-3-3-3-3-3-3-|-3-3-3-3-3-3-3-3-|
e|-----------------|-----------------|-----------------|

g|-----------------|-----------------||
d|-----------------|-----------------||
a|-----------------|-----------------||
e|-3-3-3-3-3-3-3-3-|-3-3-3-3-3-3-3-3-||

coros y solo
                                                   se repite
g|--------------|--------------|-----------------|-----------------||
d|--------------|--------------|-----------------|-----------------||
a|--------------|--------------|-----------------|-----------------||
e|-5-4-5~-5-4-5-|-6-5-6~-6-5-6-|-8-8-8-8-8-8-8-8-|-6-6-6-6-6-6-6-6-||

eso es todo disfrutenla, si tienen algun comentario escribanme
sh1977@prodigy.net.mx      saludos de Guadalajara,Mexico

Fuente original ATAME [www.atame.org]
Colaborador original: Jose Salvador Hernandez Ramirez [sh1977@prodigy.net.mx]

Fuente: tusacordes.com