a b c d e f g h i j k l m n o p q r s t u v w x y z 0-9

Planeador

Soda Stereo

			
Intro de lira?      Intro?
E----------------|55-5----55-5----55-5------3-2/3-
A----------------|----55-5----55-5----55-5-3-2---- 
D----------------|--------------------------------	  	
G----------------|--------------------------------

Gira el disco?
E|55-5----55-5----55-5------3-2/3-
A|----55-5----55-5----55-5-3-2----
D|--------------------------------	
G|--------------------------------

Soy piloto de?
E|55-5----55-5----55-5------3-2--
A|----55-5----55-5----55-5-3-2---  
D|-------------------------------		
G|-------------------------------

Cruzo el valle?
E|--------------------------------
A|5-5-5-5-5-5-5-5-3-3-3-3-3-3-3-3-
D|-------------------------------- x 2
G|--------------------------------

Planeador
E|55-5-------------55-5----
A|----55-5--5-5--5-----55-- 
D|--------5--5-5---------5-		
G|-------------------------


La ternura de tu duda?
E|55-5----55-5----55-5------3-2/3-
A|----55-5----55-5----55-5-3-2----
D|--------------------------------	
G|--------------------------------

En cada mínimo?
E|55-5----55-5----55-5------3-2/3-
A|----55-5----55-5----55-5-3-2----
D|--------------5-----------------	
G|--------------------------------

Cruza el valle?
E|--------------------------------
A|5-5-5-5-5-5-5-5-3-3-3-3-3-3-3-3-
D|-------------------------------- x 2
G|--------------------------------

Como yo?
E|55-5------------55-5------
A|----55-5---5---5----55-5--
D|--------5---5-5---------5-	
G|--------------------------


Una pausa y luego esto:
E|55-5----55-5----55-5------3-2/3-
A|----55-5----55-5----55-5-3-2----
D|--------------------------------	
G|--------------------------------

E|55-5---5---55-5----55-5-----3-2/3-
A|----55--5-5----55-5----5-4-3-2---- 
D|---------5------------------------	
G|----------------------------------

E|55-5-----55-5-----55-5------3-2/3-
A|----55-5-----55-5-----55-5-3-2----
D|--------5--------5----------------	
G|----------------------------------

E|55-5-----55-5----55-5------3-2/3-
A|----55-5----55-5----55-5-3-2-----
D|--------5-------5----------------
G|---------------------------------

E|55-5-----55-5----55-5-------3-2/3-
A|----55-5----55-5----55-5-3-2-----
D|--------5-------5----------------
G|---------------------------------

Y así continua hasta el final?

En estas últimas estrofas lleva algunos que otros arreglos que ya no incluí por falta de tiempo pero ustedes se lo pueden poner a su gusto

Fuente: tusacordes.com