a b c d e f g h i j k l m n o p q r s t u v w x y z 0-9

Persiana Americana

Soda Stereo

			
hay varias formas de tocar el punteo, yo les voy a dejar 2!

                          La primera
 
E------------------------------------------------------------------
B--------6--7--------------------6--7------------------6--7--------
G----7---------7-------------7-----------7---------7---------7-----
D-10---------------10----10-----------------10---10-------------9-
A------------------------------------------------------------------
E------------------------------------------------------------------


                          La segunda



E-------------3----2----------------------3--2------------
B----1---3------------3------1-----1---3---------3--1-----
G---------------------------------------------------------
D---------------------------------------------------------
A---------------------------------------------------------
E---------------------------------------------------------

E-------------3----2-----------------------
B----1---3------------3------0-------------
G------------------------------------------
D------------------------------------------
A------------------------------------------
E------------------------------------------


Graciaas~!! Espero que les guste y les salga!!!Fuente: Tus acordes