a b c d e f g h i j k l m n o p q r s t u v w x y z 0-9

Persiana Americana

Soda Stereo

			
intro x2:

E--------8--7--------------------------------
B--6--8--------8--6--------------------------
G--------------------------------------------
D--------------------------------------------
A--------------------------------------------
E--------------------------------------------

                           
E--------8--7--------------3-----------------
B--6--8--------8--5--------0-----------------
G--------------------------0-----------------
D--------------------------------------------
A--------------------------------------------
E--------------------------------------------

Fuente: Tusacordes