a b c d e f g h i j k l m n o p q r s t u v w x y z 0-9

Persiana Americana

Soda Stereo

D
Em
G
			
 					
 
      Persiana Americana - Soda Stereo


E|------------------------------------------9---------|
B|-----------8--7---------------8--7--------7---------|
G|--------7-------7----------7-------7------7---------|
D|----10------------10----10-----------9----9---------|
A|----------------------------------------------------|
E|----------------------------------------------------|
      I________________x3______________I   I_X1_I               

I______________________BIS_________________________I



D
Yo te prefiero
Resus4    D
fuera  de foco
DO9
inalcanzable SOL/SI DO9

       D
Yo te prefiero
REsus4
irreversible
D    D9
casi intocable SOL/SI DO9

Em                         DO9
Tus ropas caen lentamente
Em                         DO9
soy un espía, un espectador
Em                         DO9
y el ventilador desgarrándote
          Resus4         G 
sé que te excita pensar hasta donde llegaré

       Em        
Es difícil de creer
G              D    
creo que nunca lo podré saber
D        Resus4
sólo así yo te veré
G            Resus4 
a través de mi persiana americana

D             Resus4
Es una condena agradable
   DO9              SOL/SI DO9
el instante previo

D         Resus4
es como un desgaste
DO9       SOL/SI
una necesidad
D         Resus4
más que un deseo
         Em                           DO9
Estamos al borde de la cornisa 
         Em
casi a punto de caer
   DO9
no sientes miedo
              Em
sigues sonriendo
        Resus4                     G 
sé que te excita pensar hasta donde llegaré
                       
         Em        Em
Es  difícil difícil, de creer
G              D    
creo que nunca lo podré saber
D        Resus4
sólo así yo te veré
G            Resus4 
a través de mi persiana americana

E|------------------------------------------9---------|
B|-----------8--7---------------8--7--------7---------|
G|--------7-------7----------7-------7------7---------|
D|----10------------10----10-----------9----9---------|
A|----------------------------------------------------|
E|----------------------------------------------------|
      I_________________X6______________I  I_X1_I 
I______________________BIS_________________________I

Em                         DO9
Tus ropas caen lentamente
Em                         DO9
soy un espia, un espectador
Em                         DO9
y el ventilador desgarrandote
          Resus4         G 
sé que te excita pensar hasta donde llegaré

       Em        
Es difícil de creer
G              D    
creo que nunca lo podré saber
D        Resus4
sólo así yo te veré
G            Resus4 
a través de mi persiana americana

Em        Em       G 
lo que pueda lo que pueda suceder
        Resus4                D
no gastes fuerzas para comprender
D        Resus4
sólo así yo te veré
G            Resus4 
a través de mi persiana americana
 

Fuente: tusacordes.com