a b c d e f g h i j k l m n o p q r s t u v w x y z 0-9

Persiana Americana

Soda Stereo

			
de mexico para toda latinoamerica espero esta sea la correcta, 
mas bien esta es la corecta y no sean cabrones por que me costo 
mucho trabajo y los que piensen que no pues pinches sordos 
lavense las orejas

afinacion standard e,a,d,g

guitarra y bateria solos en intro

riff 1

yo te prefiero .............

G--------------------------------------------------------------------------
D--------------------------------------------------------------------------
A-15/5-5-5-5-5-5-5-5-0-2-5-5-5-5-5-5-5-5-0-2-3-3-3-3-3-3-3-2---------------
E------------------------------------------------------------3-3-3-3-3-3-3-

riff 2

tu ropas caen..................

G---------------------------------------
D---------------------------------------
A-7-7-7-7-7-7-3-3-3-3-3-----------------
E---------------------------------------

puente

se que te excita pensar................

G---------------------------------------
D---------------------------------------
A-5-5-5-5-5-5-5-5-5-5-5-5---------------
E---------------------------------------

riff 3

dificil de creer ...........

G--------------------------------------------------
D--------------------------------------------------
A-------------3-3-3-3-3-3-3-3-2--------------------
E-3-3-3-3-3-3-------------------3-3-3-3-3-3-3-3-3-3

G------------------------------------------------------------------------------------
D------------------------------------------------------------------------------------
A-7-7-7-7-7-7-7-7-6-5-5-5-5-5-5-5-4-3-3-3-3-3-3-3-3-3-2------------------------------
E-------------------------------------------------------3-3-3-3-3-3-3-3-0-0-0-0-0-0-0

interload

G----------------------------------------
D----------------------------------------
A-3h5-3h5-3h5-3h5------------------------
E------------------0-0-0-0-0-------------

se repite riff 1

se repite riff 2

se repite puente

dificil de creer riff 3 con la siguente variacion en la ultima 
nota la pondre completa para los que se apendejan cono siempre


G--------------------------------------------------
D--------------------------------------------------
A-------------3-3-3-3-3-3-3-3-2--------------------
E-3-3-3-3-3-3-------------------3-3-3-3-3-3-3-3-3-3

G-------------------------------------------------------------------------------------
D-------------------------------------------------------------------------------------
A-7-7-7-7-7-7-7-7-6-5-5-5-5-5-5-5-4-3-3-3-3-3-3-3-3-3-2-------------------------------
E-------------------------------------------------------3-3-3-3-3-3-3-3-1-1-1-1-1-1-1-

si se fijan cambio de 0 a 1 que es de MI a FA ok igual en la gutarra asi es que suerte 
y que les salga bien dudas o comentarios a mi mail ok desde mexico

Fuente original ATAME [www.atame.org]
Colaborador original: victor lopez navarrete [vincent_cassell_le_dobermann@hotmail.com]

Fuente: tusacordes.com