a b c d e f g h i j k l m n o p q r s t u v w x y z 0-9

Persiana Americana

Soda Stereo

			
__________________________________
||Afinación: G-D-A-E standard ||
||Compás: 4/4                   ||
||Duración: Q=200               ||
¯¯¯¯¯¯¯¯¯¯¯¯¯¯¯¯¯¯¯¯¯¯¯¯¯¯¯¯¯¯¯¯¯¯

Leyenda

Notas:
W = REDONDA Nota completa
H = BLANCA  Media Nota
Q = NEGRA   Cuarto de Nota
E = CORCHEA Octavo de Nota

*No hay notas con puntillo*

rest = SILENCIO Cuando no dice rest la nota dura hasta que se toque la siguiente

Símbolos:
/ = Slide up deslizar hacia la derecha
 = Slide down deslizar hacia la izquierda

Pentagrama:
||*  *|| = Se repiten los compases indicados por las veces que indica el # de arriba.
           Si no hay #, se repite una sola vez.



Intro
            W         10x    H     E  E  Q       Q    E  Q    E  Q
G||---------r----------||----r----------------|-----------------------|
D||*--------e---------*||----e----------------|-----------------------|
A||*--------s---------*||----s----------------|--5----5--5----5--5----|
E||---------t----------||----t-----3--3--3----|-----------------------|

                                                                      
 E  E  Q    E  E  Q       Q    E  Q    E  Q      E  E  Q    E  E  Q
-----------------------|-----------------------|-----------------------|
-----------------------|-----------------------|-----------------------|
----5--5---------------|--5----5--5----5--5----|----5--5---------------|
------------3--3--3----|-----------------------|------------3--3--3----|

                                                                        
  Q    E  Q    E  Q      E  E  Q    E  E  Q       Q    E  Q    E  Q
-----------------------|-----------------------|-----------------------|
-----------------------|-----------------------|-----------------------|
--2----2--2----2--2----|----2--2---------------|--2----2--2----2--2----|
-----------------------|------------3--3--3----|-----------------------|

                        Verso Te prefiero...                         
 E  E  Q    E  E  Q       Q    E  Q    E  Q      E  E  Q    E  E  Q
-----------------------|-----------------------|-----------------------|
-----------------------|-----------------------|-----------------------|
----2--2---------------|--5----5--5----5--5----|----5--5---------------|
------------3--3--3----|-----------------------|------------3--3--3----|

                                                                        
  Q    E  Q    E  Q      E  E  Q    E  E  Q       Q    E  Q    E  Q
-----------------------|-----------------------|-----------------------|
-----------------------|-----------------------|-----------------------|
--5----5--5----5--5----|----5--5---------------|--3----2--2----2--2----|
-----------------------|------------3--3--3----|-----------------------|

                                                                        
 E  E  Q    E  E  Q       Q    E  Q    E  Q      E  E  Q    E  E  Q
-----------------------|-----------------------|-----------------------|
-----------------------|-----------------------|-----------------------|
----2--2---------------|--3----2--2----3--2----|----2--2---------------|
------------3--3--3----|-----------------------|------------3--3--3----|

Estribillo Tus ropas caen...
  Q    E  Q    E  Q      E  E  Q    E  E  Q       Q    E  Q    E  Q
-----------------------|-----------------------|-----------------------|
-----------------------|-----------------------|-----------------------|
--7----7--7----7--7----|----7--7----7--7--7----|--3----3--3----3--3----|
-----------------------|-----------------------|-----------------------|

                                                                        
 E  E  Q    E  E  Q       Q    E  Q    E  Q      E  E  Q    E  E    Q   
-----------------------|-----------------------|--------------------------|
-----------------------|-----------------------|--------------------------|
----3--3----3--3--3----|--7----7--7----7--7----|----7--7/---10--10--10---|
-----------------------|-----------------------|--------------------------|

                                                                        
  Q    E  Q    E  Q      E  E  Q    E  E  Q       Q    E  Q    E  Q
-----------------------|-----------------------|-----------------------|
-----------------------|-----------------------|-----------------------|
--3----3--3----3--3----|----3--3----3--3--3----|--7----7--7----7--7----|
-----------------------|-----------------------|-----------------------|

                                                                       
 E  E  Q    E  E     Q       Q    E  Q    E  Q      E  E  Q    E  E  Q    
--------------------------|-----------------------|-----------------------|
--------------------------|-----------------------|-----------------------|
----7--7/---10--10--10---|--3----3--3----3--3----|----3--3----3--3--3----|
--------------------------|-----------------------|-----------------------|

                                                                        
  Q    E  Q    E  Q      E  E  Q    E  E  Q       Q    E  Q    E  Q
-----------------------|-----------------------|-----------------------|
-----------------------|-----------------------|-----------------------|
--5----5--5----5--5----|----5--5----5--5--5----|--5----5--5----5--5----|
-----------------------|-----------------------|-----------------------|

                   LLegaré                                             
 E  E  Q    E  E  Q       Q    E  Q    E  Q      E  E  Q    E  E  Q
-----------------------|-----------------------|-----------------------|
-----------------------|-----------------------|-----------------------|
----5--5----5--5--5----|-----------------------|-----------------------|
-----------------------|--3----3--3----3--3----|----3--3----3--3--3----|

                                                                        
  Q    E  Q    E  Q      E  E  Q    E  E  Q       Q    E  Q    E  Q
-----------------------|-----------------------|-----------------------|
-----------------------|-----------------------|-----------------------|
--3----3--3----3--3----|----3--3----3--3--3----|-----------------------|
-----------------------|-----------------------|--3----3--3----3--3----|

                                                                        
 E  E  Q    E  E  Q       Q    E  Q    E  Q      E  E  Q    E  E  Q
-----------------------|-----------------------|-----------------------|
-----------------------|-----------------------|-----------------------|
-----------------------|--7----7--7----7--7----|----7--7----7--7--7----|
----3--3----3--3--3----|-----------------------|-----------------------|


  Q    E  Q    E  Q      E  E  Q    E  E  Q       Q    E  Q    E  Q
-----------------------|-----------------------|-----------------------|
-----------------------|-----------------------|-----------------------|
--5----5--5----5--5----|----5--5----5--5--5----|--3----3--3----3--3----|
-----------------------|-----------------------|-----------------------|

                                                                        
 E  E  Q    E  E  Q       Q    E  Q    E  Q      E  E  Q    E  E  Q
-----------------------|-----------------------|-----------------------|
-----------------------|-----------------------|-----------------------|
----3--3----3--3--3----|-----------------------|-----------------------|
-----------------------|--3----3--3----3--3----|----3--3----3--3--3----|

                                                 Verso comedia/desgaste
  Q    E  Q    E  Q      E  E  Q    E  E  Q         Q    E  Q    E  Q
-----------------------|-----------------------||------------------------|
-----------------------|-----------------------||*-----------------------|
--7----7--7----7--7----|----7--7----7--7--7----||*--5----5--5----5--5----|
-----------------------|-----------------------||------------------------|

                                                                        
 E  E  Q    E  E  Q       Q    E  Q    E  Q      E  E  Q    E  E  Q
-----------------------|-----------------------|-----------------------|
-----------------------|-----------------------|-----------------------|
----5--5---------------|--5----5--5----5--5----|----5--5---------------|
------------3--3--3----|-----------------------|------------3--3--3----|

                                                                        
  Q    E  Q    E  Q      E  E  Q    E  E  Q       Q    E  Q    E  Q
-----------------------|-----------------------|-----------------------|
-----------------------|-----------------------|-----------------------|
--3----2--2----2--2----|----2--2---------------|--3----2--2----3--2----|
-----------------------|------------3--3--3----|-----------------------|

                          Estribillo Estamos al borde...
 E  E  Q    E  E  Q         Q    E  Q    E  Q      E  E  Q    E  E  Q
------------------------||-----------------------|-----------------------|
-----------------------*||-----------------------|-----------------------|
----2--2---------------*||--7----7--7----7--7----|----7--7----7--7--7----|
------------3--3--3-----||-----------------------|-----------------------|

                                                                       
  Q    E  Q    E  Q      E  E  Q    E  E  Q       Q    E  Q    E  Q
-----------------------|-----------------------|-----------------------|
-----------------------|-----------------------|-----------------------|
--3----3--3----3--3----|----3--3----3--3--3----|--7----7--7----7--7----|
-----------------------|-----------------------|-----------------------|

                                                   
 E  E  Q    E  E    Q        Q    E  Q    E  Q      E  E  Q    E  E  Q
--------------------------|-----------------------|-----------------------|
--------------------------|-----------------------|-----------------------|
----7--7/---10--10--10---|--3----3--3----3--3----|----3--3----3--3--3----|
--------------------------|-----------------------|-----------------------|

                                                                           
  Q    E  Q    E  Q      E  E  Q    E  E    Q        Q    E  Q    E  Q
-----------------------|--------------------------|-----------------------|
-----------------------|--------------------------|-----------------------|
--7----7--7----7--7----|----7--7/---10--10--10---|--3----3--3----3--3----|
-----------------------|--------------------------|-----------------------|

                                                                        
 E  E  Q    E  E  Q       Q    E  Q    E  Q      E  E  Q    E  E  Q
-----------------------|-----------------------|-----------------------|
-----------------------|-----------------------|-----------------------|
----3--3----3--3--3----|--5----5--5----5--5----|----5--5----5--5--5----|
-----------------------|-----------------------|-----------------------|

                                           Llegaré                
  Q    E  Q    E  Q      E  E  Q    E  E  Q       Q    E  Q    E  Q
-----------------------|-----------------------|-----------------------|
-----------------------|-----------------------|-----------------------|
--5----5--5----5--5----|----5--5----5--5--5----|-----------------------|
-----------------------|-----------------------|--3----3--3----3--3----|

                                                                        
 E  E  Q    E  E  Q       Q    E  Q    E  Q      E  E  Q    E  E  Q
-----------------------|-----------------------|-----------------------|
-----------------------|-----------------------|-----------------------|
-----------------------|--3----3--3----3--3----|----3--3----3--3--3----|
----3--3----3--3--3----|-----------------------|-----------------------|

                                                                        
  Q    E  Q    E  Q      E  E  Q    E  E  Q       Q    E  Q    E  Q
-----------------------|-----------------------|-----------------------|
-----------------------|-----------------------|-----------------------|
-----------------------|-----------------------|--7----7--7----7--7----|
--3----3--3----3--3----|----3--3----3--3--3----|-----------------------|

                                                                        
 E  E  Q    E  E  Q       Q    E  Q    E  Q      E  E  Q    E  E  Q
-----------------------|-----------------------|-----------------------|
-----------------------|-----------------------|-----------------------|
----7--7----7--7--7----|--5----5--5----5--5----|----5--5----5--5--5----|
-----------------------|-----------------------|-----------------------|

                                                                        
  Q    E  Q    E  Q      E  E  Q    E  E  Q       Q    E  Q    E  Q
-----------------------|-----------------------|-----------------------|
-----------------------|-----------------------|-----------------------|
--3----3--3----3--3----|----3--3----3--3--3----|--2----2--2----2--2----|
-----------------------|-----------------------|-----------------------|

                                                                        
 E  E  Q    E  E  Q       Q    E  Q    E  Q      E  E  Q    E  E  Q
-----------------------|-----------------------|-----------------------|
-----------------------|-----------------------|-----------------------|
----2--2----2--2--2----|--8----8--8----8--8----|----8--8----8--8--8----|
-----------------------|-----------------------|-----------------------|

Intermedio
    Q    E  Q    E  Q      E  E  Q    E  E  Q     6x        W     
|------------------------|------------------------||--------r---------|
|*-----------------------|-----------------------*||--------e---------|
|*--7----7--7----7--7----|----7--7----7--7--7----*||--------s---------|
|------------------------|------------------------||--------t---------|

                    Intro
        W                     W         6x    H     E  E  Q    
--------r---------||----------r---------||----r----------------|
--------e---------||*---------e--------*||----e----------------|
--------s---------||*---------s--------*||----s----------------|
--------t---------||----------t---------||----t-----3--3--3----|

                                                                       
  Q    E  Q    E  Q      E  E  Q    E  E  Q       Q    E  Q    E  Q
-----------------------|-----------------------|-----------------------|
-----------------------|-----------------------|-----------------------|
--5----5--5----5--5----|----5--5---------------|--5----5--5----5--5----|
-----------------------|------------3--3--3----|-----------------------|

                                                                        
 E  E  Q    E  E  Q       Q    E  Q    E  Q      E  E  Q    E  E  Q
-----------------------|-----------------------|-----------------------|
-----------------------|-----------------------|-----------------------|
----5--5---------------|--2----2--2----2--2----|----2--2---------------|
------------3--3--3----|-----------------------|------------3--3--3----|

                                                Estribillo Tus ropas...
  Q    E  Q    E  Q      E  E  Q    E  E  Q       Q    E  Q    E  Q
-----------------------|-----------------------|-----------------------|
-----------------------|-----------------------|-----------------------|
--2----2--2----2--2----|----2--2---------------|--7----7--7----7--7----|
-----------------------|------------3--3--3----|-----------------------|

                                                                        
 E  E  Q    E  E  Q       Q    E  Q    E  Q      E  E  Q    E  E  Q
-----------------------|-----------------------|-----------------------|
-----------------------|-----------------------|-----------------------|
----7--7----7--7--7----|--3----3--3----3--3----|----3--3----3--3--3----|
-----------------------|-----------------------|-----------------------|

                                                                           
  Q    E  Q    E  Q      E  E  Q    E  E     Q       Q    E  Q    E  Q
-----------------------|--------------------------|-----------------------|
-----------------------|--------------------------|-----------------------|
--7----7--7----7--7----|----7--7/---10--10--10---|--3----3--3----3--3----|
-----------------------|--------------------------|-----------------------|

                                                                           
 E  E  Q    E  E  Q       Q    E  Q    E  Q      E  E  Q    E  E    Q
-----------------------|-----------------------|--------------------------|
-----------------------|-----------------------|--------------------------|
----3--3----3--3--3----|--7----7--7----7--7----|----7--7/---10--10--10---|
-----------------------|-----------------------|--------------------------|

                                                                        
  Q    E  Q    E  Q      E  E  Q    E  E  Q       Q    E  Q    E  Q
-----------------------|-----------------------|-----------------------|
-----------------------|-----------------------|-----------------------|
--3----3--3----3--3----|----3--3----3--3--3----|--5----5--5----5--5----|
-----------------------|-----------------------|-----------------------|

                                                                  (Llega-
 E  E  Q    E  E  Q       Q    E  Q    E  Q      E  E  Q    E  E  Q
-----------------------|-----------------------|-----------------------|
-----------------------|-----------------------|-----------------------|
----5--5----5--5--5----|--5----5--5----5--5----|----5--5----5--5--5----|
-----------------------|-----------------------|-----------------------|

-ré)                                                              
  Q    E  Q    E  Q      E  E  Q    E  E  Q       Q    E  Q    E  Q
-----------------------|-----------------------|-----------------------|
-----------------------|-----------------------|-----------------------|
-----------------------|-----------------------|--3----3--3----3--3----|
--3----3--3----3--3----|----3--3----3--3--3----|-----------------------|

                                                                       
 E  E  Q    E  E  Q       Q    E  Q    E  Q      E  E  Q    E  E  Q
-----------------------|-----------------------|-----------------------|
-----------------------|-----------------------|-----------------------|
----3--3----3--3--3----|-----------------------|-----------------------|
-----------------------|--3----3--3----3--3----|----3--3----3--3--3----|

                                                                        
  Q    E  Q    E  Q      E  E  Q    E  E  Q       Q    E  Q    E  Q
-----------------------|-----------------------|-----------------------|
-----------------------|-----------------------|-----------------------|
--7----7--7----7--7----|----7--7----7--7--7----|--5----5--5----5--5----|
-----------------------|-----------------------|-----------------------|

                                                                        
 E  E  Q    E  E  Q       Q    E  Q    E  Q      E  E  Q    E  E  Q
-----------------------|-----------------------|-----------------------|
-----------------------|-----------------------|-----------------------|
----5--5----5--5--5----|--3----3--3----3--3----|----3--3----3--3--3----|
-----------------------|-----------------------|-----------------------|

                                                                      
  Q    E  Q    E  Q      E  E  Q    E  E  Q       Q    E  Q    E  Q  
-----------------------|-----------------------|-----------------------|
-----------------------|-----------------------|-----------------------|
--2----2--2----2--2----|----2--2----2--2--2----|--8----8--8----8--8----|
-----------------------|-----------------------|-----------------------|

                        Lo que pueda...
 E  E  Q    E  E  Q       Q    E  Q    E  Q      E  E  Q    E  E  Q
-----------------------|-----------------------|-----------------------|
-----------------------|-----------------------|-----------------------|
----8--8----8--8--8----|--5----5--5----5--5----|----5--5----5--5--5----|
-----------------------|-----------------------|-----------------------|

                                                                        
  Q    E  Q    E  Q      E  E  Q    E  E  Q       Q    E  Q    E  Q
-----------------------|-----------------------|-----------------------|
-----------------------|-----------------------|--5----5--5----5--5----|
--3----3--3----3--3----|----3--3----3--3--3----|-----------------------|
-----------------------|-----------------------|-----------------------|

                                                                        
 E  E  Q    E  E  Q       Q    E  Q    E  Q      E  E  Q    E  E  Q
-----------------------|-----------------------|-----------------------|
----5--5----5--5--5----|-----------------------|-----------------------|
-----------------------|--7----7--7----7--7----|----7--7----7--7--7----|
-----------------------|-----------------------|-----------------------|

                                                                       
  Q    E  Q    E  Q      E  E  Q    E  E  Q       Q    E  Q    E  Q 
-----------------------|-----------------------|-----------------------|
-----------------------|-----------------------|-----------------------|
--5----5--5----5--5----|----5--5----5--5--5----|--3----3--3----3--3----|
-----------------------|-----------------------|-----------------------|

                                                                        
 E  E  Q    E  E  Q       Q    E  Q    E  Q      E  E  Q    E  E  Q
-----------------------|-----------------------|-----------------------|
-----------------------|-----------------------|-----------------------|
----3--3----3--3--3----|--2----2--2----2--2----|----2--2----2--2--2----|
-----------------------|-----------------------|-----------------------|

                                                         
  Q    E  Q    E  Q      E  E  Q    E  E  Q       Q    E  Q    E  Q   
-----------------------|-----------------------|-----------------------|
-----------------------|-----------------------|-----------------------|
--8----8--8----8--8----|----8--8---------------|----------5----5--5----|
-----------------------|------------1--1--1----|--3----3---------------|

           Difícil de creer...                                   
 E  E  Q    E  E  Q       Q    E  Q    E  Q      E  E  Q    E  E  Q
-----------------------|-----------------------|-----------------------|
-----------------------|-----------------------|-----------------------|
----5--5----5--5--5----|--3----3--3----3--3----|----3--3----3--3--3----|
-----------------------|-----------------------|-----------------------|

                                                                       
  Q    E  Q    E  Q      E  E  Q    E  E  Q       Q    E  Q    E  Q 
-----------------------|-----------------------|-----------------------|
--5----5--5----5--5----|----5--5----5--5--5----|-----------------------|
-----------------------|-----------------------|--7----7--7----7--7----|
-----------------------|-----------------------|-----------------------|

                                                                        
 E  E  Q    E  E  Q       Q    E  Q    E  Q      E  E  Q    E  E  Q
-----------------------|-----------------------|-----------------------|
-----------------------|-----------------------|-----------------------|
----7--7----7--7--7----|--5----5--5----5--5----|----5--5----5--5--5----|
-----------------------|-----------------------|-----------------------|

                                                                        
  Q    E  Q    E  Q      E  E  Q    E  E  Q       Q    E  Q    E  Q
-----------------------|-----------------------|-----------------------|
-----------------------|-----------------------|-----------------------|
--3----3--3----3--3----|----3--3----3--3--3----|--2----2--2----2--2----|
-----------------------|-----------------------|-----------------------|

                                                                        
 E  E  Q    E  E  Q       Q    E  Q    E  Q      E  E  Q    E  E  Q
-----------------------|-----------------------|-----------------------|
-----------------------|-----------------------|-----------------------|
----2--2----2--2--2----|--8----8--8----8--8----|----8--8---------------|
-----------------------|-----------------------|------------1--1--1----|

                                 Difícil                           
  Q    E  Q    E  Q      E  E  Q    E  E  Q       Q    E  Q    E  Q
-----------------------|-----------------------|-----------------------|
-----------------------|-----------------------|-----------------------|
----------5----5--5----|----5--5----5--5--5----|--3----3--3----3--3----|
--3----3---------------|-----------------------|-----------------------|

                                                                        
 E  E  Q    E  E  Q       Q    E  Q    E  Q      E  E  Q    E  E  Q
-----------------------|-----------------------|-----------------------|
-----------------------|--5----5--5----5--5----|----5--5----5--5--5----|
----3--3----3--3--3----|-----------------------|-----------------------|
-----------------------|-----------------------|-----------------------|

                                                                        
  Q    E  Q    E  Q      E  E  Q    E  E  Q       Q    E  Q    E  Q
-----------------------|-----------------------|empieza a bajar el vol.|
-----------------------|-----------------------|-----------------------|
--7----7--7----7--7----|----7--7----7--7--7----|--5----5--5----5--5----|
-----------------------|-----------------------|-----------------------|

                                                                        
 E  E  Q    E  E  Q       Q    E  Q    E  Q      E  E  Q    E  E  Q
-----------------------|-----------------------|-----------------------|
-----------------------|-----------------------|-----------------------|
----5--5----5--5--5----|--3----3--3----3--3----|----3--3----3--3--3----|
-----------------------|-----------------------|-----------------------|

                                                                        
  Q    E  Q    E  Q      E  E  Q    E  E  Q       Q    E  Q    E  Q
-----------------------|-----------------------|-----------------------|
--5----5--5----5--5----|----5--5----5--5--5----|-----------------------|
-----------------------|-----------------------|--7----7--7----7--7----|
-----------------------|-----------------------|-----------------------|

                                                                         
 E  E  Q    E  E  Q       Q    E  Q    E  Q      E  E  Q    E  E  Q
-----------------------|-----------------------|el vol. baja totalmente*|
-----------------------|-----------------------|-----------------------*|   FIN
----7--7----7--7--7----|----------5----5--5----|----5--5----5--5--5----*|   ¯¯¯
-----------------------|--3----3---------------|-----------------------*|



Si no se entiende algo, mandame un mail...

Fuente original ATAME [www.atame.org]
Colaborador original: Cris77ian [yocdp@yahoo.com.ar]

Fuente: tusacordes.com