a b c d e f g h i j k l m n o p q r s t u v w x y z 0-9

Persiana Americana

Soda Stereo

			
Aquí está el intro de persiana americana



E-------------3----2----------------------3--2------------
B----1---3------------3------1-----1---3---------3--1-----
G---------------------------------------------------------
D---------------------------------------------------------
A---------------------------------------------------------
E---------------------------------------------------------

E-------------3----2-----------------------
B----1---3------------3------0------14b----
G------------------------------------------
D------------------------------------------
A------------------------------------------
E------------------------------------------

Y se repite 

B= a doblar la cuerda y un tremolo o mover el dedo en el mismo traste.

Fuente original ATAME [www.atame.org]
Colaborador original: Enrique Pahceoc [esoj@starmedia.com]

Fuente: tusacordes.com