a b c d e f g h i j k l m n o p q r s t u v w x y z 0-9

Paseando Por Roma

Soda Stereo

			
La verán un poco larga pero es la canción completa

Tempo = 130

L - tied note notas unidas
h - hammer on/pull off
b - bend
s - slide
~ - vibrato


G |-------|----------------------------------------------------|
D |-------|--------------7-----------------5L----5-------------|
A |-------|-----------------------5h-7-----------------7-------|
E |-------|--5-------------------------------------------------|

----------------------------------------------------|
--------------7--------5--5-----7L----7-------------|
--------------------------------------------7-------|
--5-------------------------------------------------|

----------------------------------------------------|
--------------9-----------------7L----7-------------|
-----------------------7h-9-----------------9-------|
--7-------------------------------------------------|

----------------------------------------------------|
--------------9-----------------7-----7--9----------|
-----------------------7h-9-----------------9-------|
--7-------------------------------------------------|

----------------------------------------------------|
--------------7-----------------5L----5-------------|
-----------------------5h-7-----------------7-------|
--5-------------------------------------------------|

----------------------------------------------------|
--------------7-----------------5L----5-------------|
-----------------------5h-7-----------------7-------|
--5-------------------------------------------------|

----------------------------------------------------|
--------------9-----------------7L----7-------------|
-----------------------7h-9-----------------9-------|
--7-------------------------------------------------|

----------------------------------------------------|
--------------9-----------------7-----7--9----------|
-----------------------7h-9-----------------9-------|
--7-------------------------------------------------|


Ahora es hora de colgar.....

----------------------------------------------------|
--------------7-----------------5L----5-------------|
-----------------------5h-7-----------------7-------|
--5-------------------------------------------------|

----------------------------------------------------|
--------------7-----------------5L----5-------------|
-----------------------5h-7-----------------7-------|
--5-------------------------------------------------|

----------------------------------------------------|
--------------9-----------------7L----7-------------|
-----------------------7h-9-----------------9-------|
--7-------------------------------------------------|

----------------------------------------------------|
--------------9-----------------7-----7--9----------|
-----------------------7h-9-----------------9-------|
--7-------------------------------------------------|

Estoy perdido....
----------------------------------------------------|
--------------7-----------------5L----5-------------|
-----------------------5h-7-----------------7-------|
--5-------------------------------------------------|

----------------------------------------------------|
--------------7-----------------5L----5-------------|
-----------------------5h-7-----------------7-------|
--5-------------------------------------------------|
 En la línea...
----------------------------------------------------|
--------------9-----------------7L----7-------------|
-----------------------7h-9-----------------9-------|
--7-------------------------------------------------|

----------------------------------------------------|
--------------9-----------------7-----7--9----------|
-----------------------7h-9-----------------9-------|
--7-------------------------------------------------|

Son las 12 y te llamé....
----------------------------------------------------|
--------------7-----------------5L----5-------------|
-----------------------5h-7-----------------7-------|
--5-------------------------------------------------|

----------------------------------------------------|
--------------7-----------------5L----5-------------|
-----------------------5h-7-----------------7-------|
--5-------------------------------------------------|

----------------------------------------------------|
--------------9-----------------7L----7-------------|
-----------------------7h-9-----------------9-------|
--7-------------------------------------------------|

----------------------------------------------------|
--------------9-----------------7-----7--9----------|
-----------------------7h-9-----------------9-------|
--7-------------------------------------------------|

Desespero...
----------------------------------------------------|
--------------7-----------------5L----5-------------|
-----------------------5h-7-----------------7-------|
--5-------------------------------------------------|


----------------------------------------------------|
--------------7-----------------5L----5-------------|
-----------------------5h-7-----------------7-------|
--5-------------------------------------------------|

Pero es mejor decir adiós...
----------------------------------------------------|
----------------------------------------------------|
--6-----------6-----6--6--------6-----------6-------|
----------------------------------------------------|

----------------------------------------------------|
----------------------------------------------------|
--6-----------6-----6--6--------6s----10------------|
--------------------------------------------10s-----|

----------------------------|----------------------------|
----------------------------|----------------------------|
----------------------------|----------------------------|
--5-----5--0h-3--5-----3----|--5-----5--0h-3--5-----5----|

O intentar....

----------------------------|----------------------------|
----------------------------|----------------------------|
----------------------------|----------------------------|
--7-----7--0h-5--7-----5----|--7-----7--0h-5--7-----7----|

Mañana....
----------------------------------------------------|
----------------------------------------------------|
----------------------------------------------------|
--3-----------3--------3--3-----3-----3-----0-------|

----------------------------------------------------|
----------------------------------------------------|
----------------------------------------------------|
--1-----------1--------0--1-----0-----1-------------|

----------------------------------------------------|
-----------------------------------5--------3L------|
--------------------------3s-5----------------------|
--3-----------3-------------------------------------|

----------------------------|
--3--2--3--2--3--2----------|
--------------------3--0----|
----------------------------|

----------------------------------------------------|
----------------------------------------------------|
----------------------------------------------------|
--3-----------3--------3--3-----3-----3-----0-------|

----------------------------------------------------|
----------------------------------------------------|
----------------------------------------------------|
--1-----------1--------0--1-----0-----1-------------|

----------------------------------------------------|
-----------------------------------5--------3L------|
--------------------------3s-5----------------------|
--3-----------3-------------------------------------|

----------------------------|
--3--2--3--2--3--2----------|
--------------------3--0----|
----------------------------|

Ahora es hora de volver....
----------------------------------------------------|
--------------7-----------------5L----5-------------|
-----------------------5h-7-----------------7-------|
--5-------------------------------------------------|

----------------------------------------------------|
--------------7-----------------5L----5-------------|
-----------------------5h-7-----------------7-------|
--5-------------------------------------------------|

----------------------------------------------------|
--------------9-----------------7L----7-------------|
-----------------------7h-9-----------------9-------|
--7-------------------------------------------------|

----------------------------------------------------|
--------------9-----------------7-----7--9----------|
-----------------------7h-9-----------------9-------|
--7-------------------------------------------------|

Esta noche.....
----------------------------------------------------|
--------------7-----------------5L----5-------------|
-----------------------5h-7-----------------7-------|
--5-------------------------------------------------|

----------------------------------------------------|
--------------7-----------------5L----5-------------|
-----------------------5h-7-----------------7-------|
--5-------------------------------------------------|

Soy un simulcop
----------------------------------------------------|
--------------9-----------------7L----7-------------|
-----------------------7h-9-----------------9-------|
--7-------------------------------------------------|

----------------------------------------------------|
--------------9-----------------7-----7--9----------|
-----------------------7h-9-----------------9-------|
--7-------------------------------------------------|

Todo el tiempo me encontré...
----------------------------------------------------|
--------------7-----------------5L----5-------------|
-----------------------5h-7-----------------7-------|
--5-------------------------------------------------|

----------------------------------------------------|
--------------7-----------------5L----5-------------|
-----------------------5h-7-----------------7-------|
--5-------------------------------------------------|

----------------------------------------------------|
--------------9-----------------7L----7-------------|
-----------------------7h-9-----------------9-------|
--7-------------------------------------------------|

----------------------------------------------------|
--------------9-----------------7-----7--9----------|
-----------------------7h-9-----------------9-------|
--7-------------------------------------------------|

Dando vueltas....
----------------------------------------------------|
--------------7-----------------5L----5-------------|
-----------------------5h-7-----------------7-------|
--5-------------------------------------------------|

----------------------------------------------------|
--------------7-----------------5L----5-------------|
-----------------------5h-7-----------------7-------|
--5-------------------------------------------------|

Es extraña esta ciudad....
----------------------------------------------------|
----------------------------------------------------|
--6-----------6-----6--6--------6-----------6-------|
----------------------------------------------------|

----------------------------------------------------|
----------------------------------------------------|
--6-----------6-----6--6--------6s----10------------|
--------------------------------------------10s-----|

----------------------------|----------------------------|
----------------------------|----------------------------|
----------------------------|----------------------------|
--5-----5--0h-3--5-----3----|--5-----5--0h-3--5-----5----|

O yo estoy....
----------------------------|----------------------------|
----------------------------|----------------------------|
----------------------------|----------------------------|
--7-----7--0h-5--7-----5----|--7-----7--0h-5--7-----7----|

Fuera de escala...

----------------------------|----------------------------|
----------------------------|----------------------------|
----------------------------|----------------------------|
--3-----3L-3s-6-----6--6s---|--8-----8--8--8--8s-15------|


Ooh... ooh...
----------------------------------------------------|
----------------------------------------------------|
----------------------------------------------------|
--3-----------3--------3--3-----3-----3-----0-------|

----------------------------------------------------|
----------------------------------------------------|
----------------------------------------------------|
--1-----------1--------0--1-----0-----1-------------|

----------------------------------------------------|
-----------------------------------5--------3L------|
--------------------------3s-5----------------------|
--3-----------3-------------------------------------|

----------------------------|
--3--2--3--2--3--2----------|
--------------------3--0----|
----------------------------|

----------------------------------------------------|
----------------------------------------------------|
----------------------------------------------------|
--3-----------3--------3--3-----3-----3-----0-------|

----------------------------------------------------|
----------------------------------------------------|
----------------------------------------------------|
--1-----------1--------0--1-----0-----1-------------|

----------------------------------------------------|
-----------------------------------5--------3L------|
--------------------------3s-5----------------------|
--3-----------3-------------------------------------|

----------------------------|
--3--2--3--2--3--2----------|
--------------------3--0----|
----------------------------|

SOLO
----------------------------------------------------|
--------------7-----------------5L----5-------------|
-----------------------5h-7-----------------7-------|
--5-------------------------------------------------|

----------------------------------------------------|
--------------7-----------------5L----5-------------|
-----------------------5h-7-----------------7-------|
--5-------------------------------------------------|

----------------------------------------------------|
--------------9-----------------7L----7-------------|
-----------------------7h-9-----------------9-------|
--7-------------------------------------------------|

----------------------------------------------------|
--------------9-----------------7-----7-------------|
-----------------------7h-9-----------------9-------|
--7-------------------------------------------------|

----------------------------------------------------|
--------------7-----------------5L----5-------------|
-----------------------5h-7-----------------7-------|
--5-------------------------------------------------|

----------------------------------------------------|
--------------7-----------------5L----5-------------|
-----------------------5h-7-----------------7-------|
--5-------------------------------------------------|

----------------------------------------------------|
--------------9-----------------7L----7-------------|
-----------------------7h-9-----------------9-------|
--7-------------------------------------------------|

--------------------------------------7--9----------|
--------------9-----------7-----7-----------7--9----|
--------------------7h-9----------------------------|
--7-----7-------------------------------------------|

Ahora es hora y no fue ayer
----------------------------------------------------|
--------------7-----------------5L----5-------------|
-----------------------5h-7-----------------7-------|
--5-------------------------------------------------|

----------------------------------------------------|
--------------7-----------------5L----5-------------|
-----------------------5h-7-----------------7-------|
--5-------------------------------------------------|

----------------------------------------------------|
--------------9-----------------7L----7-------------|
-----------------------7h-9-----------------9-------|
--7-------------------------------------------------|

----------------------------------------------------|
--------------9-----------------7L----7-------------|
-----------------------7h-9-----------------9-------|
--7-------------------------------------------------|

Mis amigos...
----------------------------------------------------|
--------------7-----------------5L----5-------------|
-----------------------5h-7-----------------7-------|
--5-------------------------------------------------|

----------------------------------------------------|
--------------7-----------------5L----5-------------|
-----------------------5h-7-----------------7-------|
--5-------------------------------------------------|

He cambiado pero aún....
----------------------------------------------------|
----------------------------------------------------|
--6-----------6--------6--6-----6-----6-----0-------|
----------------------------------------------------|

Pero aún mi corazón...
----------------------------------------------------|
----------------------------------------------------|
----------------------------------------------------|
--6-----------6--------6--6-----6-----6-----0-------|


----------------------------------------------------|
----------------------------------------------------|
----------------------------------------------------|
--8-----------8--------8--8-----8-----8-----0-------|

Permanece intacto...
----------------------------------------------------|
----------------------------------------------------|
--6-----------6--------6--6-----6-----6-----0-------|
----------------------------------------------------|

----------------------------------------------------|
----------------------------------------------------|
--6-----------6--------6--6-----6-----6-----0-------|
----------------------------------------------------|

Intacto...
----------------------------------------------------|-------|
----------------------------------------------------|-------|
----------------------------------------------------|-------|
--6-----------6--------6--6-----6-----6-----0-------|--5----|


----------------------------|-------|----------------------------|-------|
----------------------------|-------|----------------------------|-------|
--5L----------------5-------|-------|--5L----------------5-------|-------|
-----------------------0----|--5----|-----------------------0----|--5----|


-------|-------|----------------------------|
-------|-------|----------------------------|
--5----|-------|--5s-17---------------------|
-------|--5----|--------------17s3----------|

Oooh... Oooh...
----------------------------------------------------|
----------------------------------------------------|
----------------------------------------------------|
--3-----------3--------3--3-----3-----3-----0-------|

----------------------------------------------------|
----------------------------------------------------|
----------------------------------------------------|
--1-----------1--------0--1-----0-----1-------------|

----------------------------------------------------|
-----------------------------------5--------3L------|
--------------------------3s-5----------------------|
--3-----------3-------------------------------------|

----------------------------|
--3--2--3--2--3--2----------|
--------------------3--0----|
----------------------------|

----------------------------------------------------|
----------------------------------------------------|
----------------------------------------------------|
--3-----------3--------3--3-----3-----3-----0-------|

----------------------------------------------------|
----------------------------------------------------|
----------------------------------------------------|
--1-----------1--------0--1-----0-----1-------------|

----------------------------------------------------|
----------------------------------------------------|
----------------------------------------------------|
--6-----------6--------6--6-----6-----6-----0-------|

----------------------------------------------------|
----------------------------------------------------|
----------------------------------------------------|
--8-----------8--------8--8-----8s----12s-----------|

----------------------------------------------------|
----------------------------------------------------|
----------------------------------------------------|
--3-----------3--------3--3-----3-----3-----0-------|

----------------------------------------------------|
----------------------------------------------------|
----------------------------------------------------|
--1-----------1--------0--1-----0-----1-------------|

----------------------------------------------------|
----------------------------------------------------|
----------------------------------------------------|
--6-----------6--------6--6-----6-----6-----0-------|

----------------------------|-------|----||
----------------------------|-------|----||
----------------------------|-------|----||
--8--8--8--8--8--8s-12s-----|--3s---|----||

Fuente: Tusacordes