a b c d e f g h i j k l m n o p q r s t u v w x y z 0-9

No Existes

Soda Stereo

			
Bueno aquí les traigo esta tablatura, de esta buena canción, de los mejores: Soda Stereo.
Esta versión la saque a oído y suena bien. no es exactamente la correcta pero no esta mal
así que espero les guste.


Intro:

e|-15b17 ~~~~--------|---14b15~~------|--------------|--------------8--|
B|-------------------|----------------|--------------|-----------6-----|____
G|-------------------|----------------|--------------|--------7--------|    |
             F         Am               A#             Dm                    Se toca
e|-----------5-------|-5--------------|-6------------|-5---------------|____|al mismo tiempo
B|-----------6-------|-5--------------|-6------------|-6---------------|
G|-----------5-------|-5--------------|-7------------|-8---------------|
D|-----------7-------|-7--------------|-8------------|-8---------------|
A|-----------8-------|-7--------------|-8------------|-5---------------|
E|-------------------|-5--------------|-6------------|-----------------|


Verso: 1

e|-------------------|-------------------|--------------21b22-|____
   F                   Am                  A#                      |Se toca
e|-5-----------------|-5-----------------|-6------------------|____|al mismo tiempo
B|-6-----------------|-5-----------------|-6------------------|
G|-5-----------------|-5-----------------|-7------------------|
D|-7-----------------|-7-----------------|-8------------------|
A|-8-----------------|-7-----------------|-8------------------|
E|-------------------|-5-----------------|-6------------------|
   Alguna vez fue      hacernos todo  el   dictando una
   que planeamos       daño de una vez     sentencia desafiante


e|-----5----------8--|
B|-------6----5-6----|_________
G|--7------7---------|         |
    Dm C  A#                    Esto se toca al mismo tiempo.
e|--5--3--1----------|_________|
B|--6--5--3----------|
G|--7--5--3----------|
D|--7--5--3----------|
A|--5--3--1----------|
E|-------------------|4 Veces
   No existes

Verso: 2

e|---------------17~~|~~/-19~~b21--------|----------8/10-17~~-|____
   F                   Am                  A#                      |Se toca
e|-5-----------------|-5-----------------|-6------------------|____|al mismo tiempo
B|-6-----------------|-5-----------------|-6------------------|
G|-5-----------------|-5-----------------|-7------------------|
D|-7-----------------|-7-----------------|-8------------------|
A|-8-----------------|-7-----------------|-8------------------|
E|-------------------|-5-----------------|-6------------------|
   La polaroid sobre   brillante truco     tu presencia es mi
   la silla            de aparencia        pesadilla



e|-----5-----------8-|
B|-------6-----5-6---|_________
G|--7------7---------|         |
    Dm C  A#                    Esto se toca al mismo tiempo.
e|--5--3--1----------|_________|
B|--6--5--3----------|
G|--7--5--3----------|
D|--7--5--3----------|
A|--5--3--1----------|
E|-------------------|4 Veces
   No existes


Puente:

   Cm          A#           Am     D#           Dm
e|-------------------------------|-6------------5------|
B|-------------------------------|-8------------6------|
G|-------------------------------|-8------------7------|
D|-5-----------8------------7----|-8------------7------|
A|-5-----------8------------7----|-6------------5------|
E|-3-----------6------------5----|---------------------|
    Como un extraño tic nervioso       arrojo palabras

   C                              A#
e|-3------------------------------1-|
B|-4------------------------------3-|
G|-5--------------------------53-3-|
D|-5--------------------------53-3-|
A|-3--------------------------31-1-|
E|----------------------------------|
      gestos contra la pared     ohhhh



INTERMEDIO: Aqui es donde el ritmo de la cancion va mas rapido.

Esta parte con un buen delay

e|-----------------------------------------------------------------------------------|
B|-----------------------------------------------------------------------------------|
G|---------<7>----------7----------7----------7--------5---5---------------------|
D|-<7>-<10>--<10>---7-10--10---7-10--10---7-10--10--5---7---7-5---7-5----|
A|---------------------------------------------------------------------7-------7-|
E|-----------------------------------------------------------------------------------|

e|-----------------------------|-13-10-----------------------------------------------|
B|-----------------------------|------13-10--------13-10-----------------------------|
G|-----------------------------|------------12----------12-10-----12-10-----12-10----|
D|-5-------------------------|-----------------------------12------12------12|
A|-----7-5-7-5---------|-----------------------------------------------------|
E|---------------------7-5-|-----------------------------------------------------|

e|-----------------------------------------|
B|-----------------------------------------|
G|--------------------------13--11--10--8-|
D|-12-10-----12-10-----10------------------|
A|------12------12---------------------|
E|-----------------------------------------|



Verso: 4

   F                                   Am
e|-5----------------------6-5---6--8-|-5---------------------xxxxxx-5---------|
B|-6----------------------6-6---6--6-|-5---------------------xxxxxx-5---------|
G|-5---------------------------------|-5---------------------xxxxxx-5---------|
D|-7---------------------------------|-7--------------------------------------|
A|-8---------------------------------|-7--------------------------------------|
E|-----------------------------------|-5--------------------------------------|
     Toda una noche embalsamado        porque las mismas caras una y otra vez

   A#                                       Dm
e|-6------------------------6/8-----8|-6----5-----------10----10/12---1210-10-|
B|-6--------------------------------8|-6----6----------------------------------|
G|-7---------------------------------|------7--------<7>---<7>------<9>--------|
D|-8---------------------------------|------7----------------------------------|
A|-8---------------------------------|------5----------------------------------|
E|-6---------------------------------|-----------------------------------------|
   temi por mi cerebro aprisionado     en una trama mortal

   F                                   Am
e|-5------------------5/65-8p5--8p5-|-5------------------xxxxxx5------5--5--|
B|-6------------------6--------------|-5------------------xxxxxx5------5--5--|
G|-5---------------------------------|-5------------------xxxxxx5------5--5--|
D|-7---------------------------------|-7----------------------------------------|
A|-8---------------------------------|-7----------------------------------------|
E|-----------------------------------|-5----------------------------------------|
 quizas deba tomarme una revancha      aun tenemos cuentas que saldar

   A#
e|-6------------------------------|-5---5--------8-|
B|-6------------------------------|---6---6-6/10---|
G|-7------------------------------|----------------|
D|-8------------------------------|----------------|
A|-8------------------------------|----------------|
E|-6------------------------------|----------------|
  deslizare mi puño por tu espalda


e|-----5-----------8-|
B|-------6----5-6----|__________________________________________________________
G|--7------7---------|                                                          |
                                                                                |
e|--------------------|                                                         |
B|--------------------|                                                         |
G|--------------------|Esto se toca con el coro tambien las 4 vaces             |
D|----------*7*~~~~~~-|pero en la segunda y cuarte ves termina en la nota        |
A|--5--7--8-----------|que tiene **.                                            |
E|--------------------|                                                         |
                                                                                |
    Dm C  A#                                                                    |
e|--5--3--1----------|                                                          |
B|--6--5--3----------|                                                          |
G|--7--5--3----------|                                                          |
D|--7--5--3----------|                                                          |
A|--5--3--1----------|__________________________________________________________|
E|-------------------|4 Veces
    No existes


Puente:
   Cm          A#           Am     D#           Dm
e|-------------------------------|-6------------5------|
B|-------------------------------|-8------------6------|
G|-------------------------------|-8------------7------|
D|-5-----------8------------7----|-8------------7------|
A|-5-----------8------------7----|-6------------5------|
E|-3-----------6------------5----|---------------------|
    Como un extraño tic nervioso       arrojo palabras

   C                                               F
e|-3------------------------------3-5/6-8---8-10-|-5----------------|
B|-4---------------------------------------------|-6----------------|
G|-5---------------------------------------------|-5----------------|
D|-5---------------------------------------------|-7----------------|
A|-3---------------------------------------------|-8----------------|
E|-----------------------------------------------|------------------|
      gestos contra la pared                       impulso salvaje


   En el final va un arpegio mas o menos asi y va por los acordes

e|---5--------8-----5-------------------|
B|----6---5-6--------6--5-6-8-6-5-6-----|-8-8-8---8-8-8-|
G|-7---7----------7---7-----------------|
D|--------------------------------------|
A|--------------------------------------|
E|--------------------------------------|

                       F
Destellos contra la pared...   Gm A# D# Dm Gm A# Cm A# x2

      Gm A# D# Dm Gm A# Cm A#....
e|---5--------8-----5-------------------|
B|----6---5-6--------6--5-6-8-6-5-6-----|
G|-7---7----------7---7-----------------|
D|--------------------------------------|
A|--------------------------------------|
E|--------------------------------------|
        No existes                         Varias veces


                                         *****
                                         *FIN*
                                         *****



Efectos.

~~: Vibrato.
/ : Slide abajo.
 : Slide Arriba
P : Pull of
<>: Armonico artificial.
: Armonico natural.
x : tocas las cuerdas pero has que no suenen las notas, si no apagadas,
   hazlo  con tu mano izquierda Si eres diestro y viceversa.
:un slide hacia arriba pero mas lento.


<>: Armonico artificial: Este armónico se hace así: tocas la nota pero con la púa
    y el dedo sutilmente si apagar el sonido de armónico  artificial.

: Armonico natural:Este se hace tocando la cuerda con la púa, pero con tu mano
    izquierda solo la acaricias sobre el traste que se indica, no la presionas del
    todo si no que pones un dedo de tu mano izquierda si eres diestro pero no
    aplicas fuerza.
---------------------------------------------------------------------------------------
Comentarios o reclamos o sugerencias o lo que sea a mi e-mail albeckh@hotmail.com


Que viva el rock en español.... que viva latinoamerica.......que vivamos los
LATINOAMERICANOS.

---------------------------------------------------------------------------------------

Fuente original ATAME [www.atame.org]
Colaborador original: Aledes Ivan Chica Londoño [albeckh@hotmail.com]

Fuente: tusacordes.com