a b c d e f g h i j k l m n o p q r s t u v w x y z 0-9

Nada Personal

Soda Stereo

			
bueno esta la aprendi de el guitar pro aunque tiene unos cambios que le hize yo :D
INTRO

E|------------------------------|
B|------------------------------|
G|------------------------------|
D|------------------------------|
A|-4-4-----6-6------------------|
E|-----4-4-----4-4-7-7--2/4-----|

VERSO
E|----------------------------------------  -------------|
B|--------5-----------------5------------  -------5----5-|
G|------4--------4---------4-------4-----  -----4----4---|   
D|-4--6-----4--6---7--4--7----4--7---6--  -4--6---------6|
A|---------------------------------------  --------------|
E|----------------------------------------  -------------|  
                  Verso                 
                 la ultima parte es para pasar al pre coro


PRE-CORO
E|--------11---------------9--------------|
B|-9-11-9-12--9-9-11-9--7--9--------------|
G|-9-11-9-11--9-9-11-9--7--9--------------|
D|-9-11-9-----9-9-11-9--7-----------------|
A|----------------------------------------|
E|----------------------------------------|
 
hay que hacerlo rapido como suena en la cancion
puse cada acorde que hago 

CORO
E|-----------------------------------|
B|-11--11--11-11-11--11--------------|
G|-11--11--11-11-11--11--------------|  X2
D|-11--11--11-11-11--11--------------|
A|-----------------------------------|
E|-----------------------------------|

E|-----------------------------------|
B|-12--12--12-12-12--12--------------|
G|-13--13--13-13-13--13--------------|  X2
D|-14--14--14-14-14--14--------------|
A|-----------------------------------|
E|-----------------------------------|

E|-----------------------------------|
B|-11--11--11-11-11--11--------------|
G|-11--11--11-11-11--11--------------|
D|-13--13--13-13-13--13--------------|  X2
A|-----------------------------------|
E|-----------------------------------|

E|-----------------------------------|
B|-9--9--9-9-9--9--------------------|
G|-9--9--9-9-9--9--------------------|  X2
D|-9--9--9-9-9--9--------------------|
A|-----------------------------------|
E|-----------------------------------|


y bueno eso es la cancion en si 
les pongo la letra por si acaso 

Nada Personal

Comunicación sin emoción                   Verso
una voz en off con expresión deforme   

busco algo que me saque este mareo        Pre coro
busco calor en esa imagen de video

Nada, nada personal                      Coro
nada, nada personal

Ella no puede pensar, esta aburrida
de tanto simular cayó dormida
busco en tv algún mensaje entre líneas
busco alguien que sacuda mi cabeza
y no encuentro nada, nada
Nada personal
nada, nada personal
nada especial
Sinceramente
sería tan bueno tocarte
pero es inútil, tu cuerpo es de látex

Fuente: Tusacordes