a b c d e f g h i j k l m n o p q r s t u v w x y z 0-9

Nada Personal

Soda Stereo

			
Después de tanto buscar y buscar no encontré 
nunca el tab. De bajo de nada personal así que 
lo hice yo con el sudor de mi frente
Jaa, bueno aquí va...

Intro

-------------------------------------¦
-------------------------------------¦
----3------3-------3-------3---------¦
-0-----0-------0-------0------0------¦

Comunicación sin emoción
Una voz en off con expresión?.deforme!
--------------------¦
--------------------¦
----3------3--------¦
-------0-------0----¦

Busco algo que me saque este mareo
---------------------------------------¦
---------------------------------------¦
---------------------------------------¦
-0-0-0-0-0-0-2-4-4-4-4-4-4-4-----------¦

Busco calor en esa imagen de video 
---------------------------------------¦
---------------------------------------¦
---------------------------------------¦
-0-0-0-0-0-0-2-4-4-4-4-4-4-4-----------¦

Coro?
Nadaaa, oh oh oh, nada personal 
oh oh oh
nadaaa nada personal
---------------------------------------------------¦
------------------------1-1-1-1-1-1-2-2-2-2-2-2----¦
------------2-2-2-2-2-2----------------------------¦
-2-2-2-2-2-2---------------------------------------¦

Ella no puede pensar esta aburrida
De tanto simular callo dormida 
--------------------¦
--------------------¦
----3------3--------¦
-0-----0------------¦
Busco en TV algún mensaje entre líneas
---------------------------------------¦
---------------------------------------¦
---------------------------------------¦
-0-0-0-0-0-0-2-4-4-4-4-4-4-4-----------¦
 
Busco alguien que sacuda mi cabeza
---------------------------------------¦
---------------------------------------¦
---------------------------------------¦
-0-0-0-0-0-0-2-4-4-4-4-4-4-4-----------¦
 
Y no encuentro nada!!!



Nadaaa oh oh oh?
---------------------------------------------------¦
------------------------1-1-1-1-1-1-2-2-2-2-2-2----¦
------------2-2-2-2-2-2----------------------------¦
-2-2-2-2-2-2---------------------------------------¦
nada especial!!
--------------------------¦
--------------------------¦
--------------------------¦
-2-2-2-2-2-2-2-2-2--------¦

Primer solo 
-----------------------------------------------------¦
-----------------------------------------------------¦
----6-4-----4------4-6-4-----4---6-6-4-4-4-----------¦
-4------4-6----4-6-------4-6---2---------------------¦

Sinceramente seria tan bueno?tocarte
---------------------------------------¦
---------------------------------------¦
---------------------------------------¦
-0-0-0-0-0-0-2-4-4-4-4-4-4-4-----------¦

Pero es inútil tu cuerpo es de látex 
---------------------------------------¦
---------------------------------------¦
---------------------------------------¦
-0-0-0-0-0-0-2-4-4-4-4-4-4-4-----------¦
y no siento nada 

Nadaaa oh oh oh?
---------------------------------------------------¦
------------------------1-1-1-1-1-1-2-2-2-2-2-2----¦X2
------------2-2-2-2-2-2----------------------------¦
-2-2-2-2-2-2---------------------------------------¦
nada especial!!
--------------------------¦
--------------------------¦
--------------------------¦
-2-2-2-2-2-2-2-2-2--------¦

Segundo solo
------------------------------------------------¦
--------------------6-8-6----6-8-6--------------¦
---4-6-4---4-6-4----------6----------4-6-4------¦
-4-------4-------2-----------------4-------2----¦
nada..
oh oh oh
-----------------------------------------------------¦
--------------1-1-1-1-1-1---2-2-2-2-2-2--4-4-4-4-4---¦X2
--2-2-2-2-2-2----------------------------------------¦
-----------------------------------------------------¦
Nada nada auu!!
Oh oh oh
Oh oh oh
---------------------------------------------------¦
------------------------1-1-1-1-1-1-2-2-2-2-2-2----¦ X artos
------------2-2-2-2-2-2----------------------------¦
-2-2-2-2-2-2---------------------------------------¦

Alguna duda o corrección?? Chocolates??
Mandame un mail a kristian_funk@hotmail.com

Fuente original ATAME [www.atame.org]
Colaborador original: Cristian [kristian_funk@hotmail.com]

Fuente: tusacordes.com