a b c d e f g h i j k l m n o p q r s t u v w x y z 0-9

Musica Ligera

Soda Stereo

			
Aqui va musica ligera de soda stereo

Intro
G|------------------------------------------------------|
D|-----------5------------------------------------------|
A|-2-2---------5-5--------------------------------------|
E|-----3-3-3-------5-5-5-5-5----------------------------|

Estrofas
G|------------------------------------------------------|
D|------------------------------------------------------|
A|-2-------5-------2-------5----------------------------|
E|---3-3-3---5-5-5---3-3-3---5-5-5----------------------|

Solo bajo
G|------------------------------------------------------|
D|------------------------------------------------------|
A|-2-2-4-5~--5-5-4-2-0---2--0-------2-2-4-5-------5-4-2-|
E|---------------------2------2-020---------7-9-7-------|

alguna duda a johnny.correo@hotmail.com

Fuente: Tusacordes