a b c d e f g h i j k l m n o p q r s t u v w x y z 0-9

Musica Ligera

Soda Stereo

			

|--------------------------------------  ---|
|--------------------------------------     |X3
|--2-2---0--------0----5-5---0---------     |
|-----------3-3-3--------------5-5-5---  ---|



|---------------------------------
|---------------------------------
|---2-2----4-5---4-5-4--1-1---1---
|---------------------------5-----

|---------------------------------
|----------------2-4-2------------
|---2-2----4-5-----------5-4-1----
|---------------------------------

graxx  contactenme  rmf_roy@hotmail.com

Fuente: tusacordes.com