a b c d e f g h i j k l m n o p q r s t u v w x y z 0-9

Lo Que Sangra

Soda Stereo

			
Nota: Deben Darle Mucho felling al intro,para que suene bien y tiene que darla a la intro y al estribillo, un ritmo fanky,pero en toda la canciòn,pero concentrate en eso dos puntos muy dificil la canciòn


INTRO:


e/----5--5-5-8-4--4-4-8--5--5-5-8-4--5--5--5----------5--5--------/
b/----6--6-6-6-6--6-6-6--6--6-6-6-6--6--5--5----------5--5--------/
g/----7--7-7-7-7--7-7-7--7--7-7-7-7--7--5--5----------5--5--------/
d/--------------------------------------7--7----------7--7--------/
a/--------------------------------------7--7----------7--7--------/
E/--------------------------------------5--5---3-5----5--5---3-5--/  X2



e/----5--5-5-8-4--4-4-8--5--5-5-8-4--5--5--5----------5--5--------/
b/----6--6-6-6-6--6-6-6--6--6-6-6-6--6--5--5----------5--5--------/
g/----7--7-7-7-7--7-7-7--7--7-7-7-7--7--5--5----------5--5--------/
d/--------------------------------------7--7----------7--7--------/
a/--------------------------------------7--7----------7--7--------/
E/--------------------------------------5--5---3-5----5--5---3-5--/  X2

Yo conozco ese lugar donde revientan las estrellas
Yo conozco la escalera en espiral hacia la cúpula


e/----1------------0------1--------0---------------------------/
b/----3------------3------3--------3---------------------------/
g/----3------------3------3--------3---------------------------/
d/----3------------3------3--------3---------------------------/
a/----0------------0------0--------0---------------------------/
E/-------------------------------------------------------------/

         Los rayos X no penetran

e/----1-------------0--------------1-------------5-------------/
b/----3-------------3--------------3-------------3-------------/
g/----4-------------4--------------4-------------4-------------/
d/----0-------------0--------------0-------------0-------------/
a/-------------------------------------------------------------/
E/-------------------------------------------------------------/

       los obscuros vidrios de una limousine

e/----5-------3---3-----3----3---------------------------------/
b/----6-------5---6-----5----3---------------------------------/
g/----7-------6---5-----5----4---------------------------------/
d/-------------------------------------------------------------/
a/-------------------------------------------------------------/
E/-------------------------------------------------------------/ x2

        Te rescataré
        Te rescataré

e/----1----------5--------------5-----------------------------/
b/----3----------5--------------5-----------------------------/
g/----3----------5--------------5-----------------------------/
d/----3----------5--------------7-----------------------------/
a/----1----------3--------------7-----------------------------/
E/----1----------3--------------5-------3--5------------------/

         Los guardianes pierden   el honor

e/----1-------------5------0-------------------------------1-------/
b/----3-------------5------2-------------------------------3-------/
g/----3-------------5------0-------------------------------4-------/
d/----3-------------5------2-------------------------------0-------/
a/----1-------------3------0---------------------------------------/
E/----1-------------3------0---------------------------------------/

        Mientras desfilan     hay tanto fraude a nuestro alrededor
        comprenderas


e/----2----3-----3-----------3--3-----------------------------/
b/----3----3-----3-----------3--3-----------------------------/
g/----2----0-----2-----------0--0-----------------------------/
d/----0----2-----0-----------2--0-----------------------------/
a/----0----3-----0------0-2--3--2-----------------------------/
E/---------------1--------------------------------------------/ x4

             Es amor lo que  sangra
             Desde el cielo en la cúpula
             Es amor lo que  sangra
             Sobre el techo en la cúpula


e/----5--5-5-8-4--4-4-8--5--5-5-8-4--5--5--5----------5--5--------/
b/----6--6-6-6-6--6-6-6--6--6-6-6-6--6--5--5----------5--5--------/
g/----7--7-7-7-7--7-7-7--7--7-7-7-7--7--5--5----------5--5--------/
d/--------------------------------------7--7----------7--7--------/
a/--------------------------------------7--7----------7--7--------/
E/--------------------------------------5--5---3-5----5--5---3-5--/  X2

Yo conozco ese lugar donde todos se la creen
yo conozco la salida de emergencia que nos salvará


e/----1------------0---------------1--------0------------------/
b/----3------------3---------------3--------3------------------/
g/----3------------3---------------3--------3------------------/
d/----3------------3---------------3--------3------------------/
a/----0------------0---------------0--------0------------------/
E/-------------------------------------------------------------/

         Cruje tu  nombre en las paredes

e/----1-------------0-----------1-------------5----------------/
b/----3-------------3-----------3-------------3----------------/
g/----4-------------4-----------4-------------4----------------/
d/----0-------------0-----------0-------------0----------------/
a/-------------------------------------------------------------/
E/-------------------------------------------------------------/

        si sé que esperas no podré dormir


e/----5-------3---3-----3----3---------------------------------/
b/----6-------5---6-----5----3---------------------------------/
g/----7-------6---5-----5----4---------------------------------/
d/-------------------------------------------------------------/
a/-------------------------------------------------------------/
E/-------------------------------------------------------------/ x2

        Te rescataré
        Te rescataré

e/----1----------5--------------5-----------------------------/
b/----3----------5--------------5-----------------------------/
g/----3----------5--------------5-----------------------------/
d/----3----------5--------------7-----------------------------/
a/----1----------3--------------7-----------------------------/
E/----1----------3--------------5-------3--5------------------/

         Los guardianes pierden   el honor


e/----1-------------5------0-----------------------------1--------/
b/----3-------------5------2-----------------------------3--------/
g/----3-------------5------0-----------------------------4--------/
d/----3-------------5------2-----------------------------0--------/
a/----1-------------3------0--------------------------------------/
E/----1-------------3------0--------------------------------------/

              Aprovechemos    hay tanta cama a nuestro alrededor
              y verás que


e/----2----3-----3-----------3--3-----------------------------/
b/----3----3-----3-----------3--3-----------------------------/
g/----2----0-----2-----------0--0-----------------------------/
d/----0----2-----0-----------2--0-----------------------------/
a/----0----3-----0------0-2--3--2-----------------------------/
E/---------------1--------------------------------------------/ x4

             Es amor lo que  sangra
             Desde el cielo en la cúpula
             Es amor lo que  sangra
             Sobre el techo en la cúpula


e/----5----6----7----6----5---------------------------------/
b/----6----6----6----6----5---------------------------------/
g/----7----7----7----7----6---------------------------------/
d/----0----0----0----0----5---------------------------------/
a/------------------------7---------------------------------/
E/------------------------5---------------------------------/ x2

       Acá hace el solo de guitarra


e/----1------------0------1--------0---------------------------/
b/----3------------3------3--------3---------------------------/
g/----3------------3------3--------3---------------------------/
d/----3------------3------3--------3---------------------------/
a/----0------------0------0--------0---------------------------/
E/-------------------------------------------------------------/

         Los rayos X no penetran


e/----1-------------0--------------1-------------5-------------/
b/----3-------------3--------------3-------------3-------------/
g/----4-------------4--------------4-------------4-------------/
d/----0-------------0--------------0-------------0-------------/
a/-------------------------------------------------------------/
E/-------------------------------------------------------------/

        los oscuros vidrios de una limousine


e/----5-------3---3-----3----3---------------------------------/
b/----6-------5---6-----5----3---------------------------------/
g/----7-------6---5-----5----4---------------------------------/
d/-------------------------------------------------------------/
a/-------------------------------------------------------------/
E/-------------------------------------------------------------/ x2

        Te rescataré
        Te rescataré


e/----1----------5--------------5-----------------------------/
b/----3----------5--------------5-----------------------------/
g/----3----------5--------------5-----------------------------/
d/----3----------5--------------7-----------------------------/
a/----1----------3--------------7-----------------------------/
E/----1----------3--------------5-------3--5------------------/

         Los guardianes pierden   el honor


e/----1-------------5------0-------------------------------1----/
b/----3-------------5------2-------------------------------3----/
g/----3-------------5------0-------------------------------4----/
d/----3-------------5------2-------------------------------0----/
a/----1-------------3------0------------------------------------/
E/----1-------------3------0------------------------------------/

        Mientras desfilan     hay tanto fraude a nuestro alrededor
comprenderas


e/----2----3-----3-----------3--3-----------------------------/
b/----3----3-----3-----------3--3-----------------------------/
g/----2----0-----2-----------0--0-----------------------------/
d/----0----2-----0-----------2--0-----------------------------/
a/----0----3-----0------0-2--3--2-----------------------------/
E/---------------1--------------------------------------------/ x4

             Es amor lo que  sangra
             Desde el cielo en la cúpula
             Es amor lo que  sangra
             Sobre el techo en la cúpula
             Cúpula  cúpula cúpula
             Es amor lo que sangra
             Es amor lo que sangra

Fuente: Tusacordes