a b c d e f g h i j k l m n o p q r s t u v w x y z 0-9

La Ciudad De La Furia

Soda Stereo

			
despues del batacaso empieza con los mismos acordes de 
la cancion pero con mucha distorsion
Em7///G/A x2
luego:

1-------------------------------------------------
2-----------------------------------------15s17-15
3-11-----9------------9-11-16--14---16------------
4-----12--------9-12----------17---14---17--------
5-------------12----------------------------------
6-------------------------------------------------
perdon pero esta parte no la tengo muy bien,
solo se que esta en la escala de Em.

                       sube un tono completo
continua:                    /
1-15-14--12p10h12-10p7p10----------------
2--------------------------10^-8---------
3--------------------------------9~~~~~~~
4----------------------------------------
5----------------------------------------
6----------------------------------------

								                  1/2 tono
                                                                                     /
1---7--------10-9-------------------------10s12-10--12h14-15-14-15-14-------------------
2--8-8~~ -7-8-------------------------7-8------------------------------15-12------------
3-9----------------9-7--7h9--7--7--7-9------------------------------------------14-11^--
4---------------------9--------9--9-----------------------------------------------------
5---------------------------------------------------------------------------------------
6---------------------------------------------------------------------------------------


aqui se va deslizando en la 4a cuerda desde el traste 14 hasta el 19 vibrando la cuerda y luego:

1-17s19-17---21-19-17--19-19-19--------12------12------12------12------12-
2---------17----------19-----------11h12---11h12---11h12---11h12---11h12--
3-------------------------------------------------------------------------
4-------------------------------------------------------------------------
5-------------------------------------------------------------------------
6-------------------------------------------------------------------------

                            comienza el descenso     cuatro veces cada nota        
                                  /                    /
1-14-14--12-15-14-12------------------------------12-14-15--17--19--21--24
2--------------------15-12-------------------12-15------------------------
3-------------------------14-12---------12-14-----------------------------
4------------------------------14-12-14-----------------------------------
5-------------------------------------------------------------------------
6-------------------------------------------------------------------------

Fuente original ATAME [www.atame.org]
Colaborador original: Sergio Silva [sergiosilvah@hotmail.com]

Fuente: tusacordes.com