a b c d e f g h i j k l m n o p q r s t u v w x y z 0-9

La Ciudad De La Furia

Soda Stereo

			
INTRO

--------------¦
--------------¦ esta parte se toca al principio cuando la guitarra hace los acordes iniciales.
--------------¦ 
-8-7-9-12-9---¦

-------------------------------------------------------------------------¦
-------------------------------------------------------------------------¦x2
-------------------------------------------------------------------------¦
-0-0-0-0-3-3-5-5-0-0-0-0-3-3-5-5-3-3-3-3-3-3-5-5-3-3-3-3-3-3-5-5---------¦

AHORA CON LA CANCIÓN: 
Se repite después del coro
										¦
-------------------------------------------------------------------------¦	¦
-------------------------------------------------------------------------¦x2	¦
-----------------------------------------------------------------5-7-----¦	¦
-0-0-0-0-3-3-5-5-0-0-0-0-3-0-0-5-5-3-3-3-3-3-3-5-5-3-3-3-3-3-3-5---------¦	¦x2
										¦
										¦
------------------------¦							¦
------------------------¦x2 							¦
------------------------¦							¦
-0-0-0-0-3-3-5-3-5------¦							¦
										¦





CORO:

--------------------------------------------------------------------------------------¦
--------------------------------------------------------------------------------------¦
-----------------5-5-----------------------5-5----------------------------------------¦
-7-7-5-6-7-7-5-7-----3-3-2-7-7-5-6-7-7-5-7-----3-3-2-5-5-5-5-5-0-3-3-2-2-0-5-5-5-5-5--¦

-----------------------------------------------------------------------------------------------------¦
---4-----4-------------------------------------------------------------------------------------------¦
-----0-----0-------------------5-5-----------------------5-5-----------------------------------------¦
-2-----2-----2-7-7-5-6-7-7-5-7-----3-3-2-7-7-5-6-7-7-5-7-----3-3-2-5-5-5-5-5-0-3-3-2-2-0-5-5-5-5-5---¦

------------------------¦
------------------------¦
------------------------¦
-8-7-9-5----------------¦


Traten de escuchar muy bien el bajo de esta canción, si es posible hacer que los bajos del equipo
de música sobresalgan más que los agudos en la ecualización porque hay notas que deben tocarse
muy rápidas y por lo tanto al tocar junto a la canción, lo más probable va a hacer que se salgan
del compás.
Pero les aseguro que suena bien este bajo, porque ya hemos tocado esta canción con unos amigos,
y suena bien.

Chao

Fuente original ATAME [www.atame.org]
Colaborador original: Carlos Arriagada S. [floperxxi@hotmail.com]

Fuente: tusacordes.com