a b c d e f g h i j k l m n o p q r s t u v w x y z 0-9

La Ciudad De La Furia

Soda Stereo

			
La afinacion del bajo es normal.. E A D G
Empezamos!!!
  Q=120
 4/4
  Gtr I
  W          H    +Q   Q    H    +Q   +S  S E   W
|----------|--------------|-------------------|------|
|----------|--------------|-------------------|------|
|----------|-3----3-----|-2----2--2-----|------|
|----------|--------------|-------------------|------|


  Gtrs I, II
  W          W          W          Q  E S S Q  E S S
|----------|----------|----------|-------------------|
|----------|----------|----------|-------------------|
|----------|----------|----------|-------------------|
|----------|----------|----------|-0----0---0----0---|


  Q  E S S Q  E S S   Q  E S S Q  E S S   Q  E S S Q  E E
|-------------------|-------------------|------------------|
|-------------------|-------------------|------------------|
|----------0----0---|-------------------|----------0----0--|
|-3----3------------|-0----0---0----0---|-3----3-----------|


  Q  E S S Q  E S S   Q  E S S Q  E E   Q  E S S Q  E S S
|-------------------|-----------------|--------------------|
|-------------------|-----------------|--------------------|
|-------------------|----------0----0-|--------------------|
|-3----3---3----3---|-3----3----------|-3----3---3----3----|


  Q  E S S Q  E E   Q  E S S Q  E S S   Q  E S S Q  E S S
|-----------------|-------------------|--------------------|
|-----------------|-------------------|--------------------|
|----------0----0-|-------------------|----------0----0----|
|-3----3----------|-0----0---0----0---|-3----3-------------|


  Q  E S S Q  E S S   Q  E S S Q  E E   Q  E S S Q  E S S
|-------------------|-----------------|--------------------|
|-------------------|-----------------|--------------------|
|-------------------|----------0----0-|--------------------|
|-0----0---0----0---|-3----3----------|-3----3---3----3----|


  Q  E S S Q  E E   Q  E S S Q  E S S   Q  E S S Q  E E
|-----------------|-------------------|-----------------|
|-----------------|-------------------|-----------------|
|----------0----0-|-------------------|----------0----0-|
|-3----3----------|-3----3---3----3---|-3----3----------|


  Q  E S S Q  E S S   Q  E S S Q  E S S   Q  E S S Q  E S S
|-------------------|-------------------|-------------------|
|-------------------|-------------------|-------------------|
|-------------------|----------0----0---|-------------------|
|-0----0---0----0---|-3----3------------|-0----0---0----0---|


  Q  E S S Q  E E   Q  E S S Q  E S S   Q  E S S Q  E E
|-----------------|-------------------|-----------------|
|-----------------|-------------------|-----------------|
|----------0----0-|-------------------|----------0----0-|
|-3----3----------|-3----3---3----3---|-3----3----------|


  Q  E S S Q  E S S   Q  E S S Q  E E   Q  E S S Q  E S S
|-------------------|-----------------|--------------------|
|-------------------|-----------------|--------------------|
|-------------------|----------0----0-|--------------------|
|-3----3---3----3---|-3----3----------|-0----0---0----0----|


  Q  E S S Q  E S S   Q  E S S Q  E S S   Q  E S S Q  E E
|-------------------|-------------------|------------------|
|-------------------|-------------------|------------------|
|----------0----0---|-------------------|----------0----0--|
|-3----3------------|-0----0---0----0---|-3----3-----------|


  Q  E S S Q  E S S   Q  E S S Q  E E   Q  E S S Q  E S S
|-------------------|-----------------|--------------------|
|-------------------|-----------------|--------------------|
|-------------------|----------0----0-|--------------------|
|-3----3---3----3---|-3----3----------|-3----3---3----3----|


  Q  E S S Q  E E   Q  E S S Q  E S S   Q  E S S Q  E S S
|-----------------|-------------------|--------------------|
|-----------------|-------------------|--------------------|
|----------0----0-|-------------------|----------0----0----|
|-3----3----------|-0----0---0----0---|-3----3-------------|


  Q  E S S Q  E S S   Q  E S S Q  E E   Q  E S S Q  E S S
|-------------------|-----------------|--------------------|
|-------------------|-----------------|--------------------|
|-------------------|----------0----0-|--------------------|
|-0----0---0----0---|-3----3----------|-3----3---3----3----|


  Q  E S S Q  E E   Q  E S S Q  E S S   Q  E S S Q  E E
|-----------------|-------------------|-----------------|
|-----------------|-------------------|-----------------|
|----------0----0-|-------------------|----------0----0-|
|-3----3----------|-3----3---3----3---|-3----3----------|


  Q  E S S Q  E S S   Q  E S S Q  E S S   Q  E S S Q  E S S
|-------------------|-------------------|-------------------|
|-------------------|-------------------|-------------------|
|-------------------|----------0----0---|-------------------|
|-0----0---0----0---|-3----3------------|-0----0---0----0---|


  Q  E S S Q  E E   Q  E S S Q  E S S   Q  E S S Q  E E
|-----------------|-------------------|-----------------|
|-----------------|-------------------|-----------------|
|----------0----0-|-------------------|----------0----0-|
|-3----3----------|-3----3---3----3---|-3----3----------|


  Q  E S S Q  E S S   Q  E S S Q  E E   Q  E S S Q  E S S
|-------------------|-----------------|--------------------|
|-------------------|-----------------|--------------------|
|-------------------|----------0----0-|--------------------|
|-3----3---3----3---|-3----3----------|-0----0---0----0----|


  Q  E S S Q  E S S   Q  E S S Q  E S S   Q  E S S Q  E E
|-------------------|-------------------|------------------|
|-------------------|-------------------|------------------|
|----------0----0---|-------------------|----------0----0--|
|-3----3------------|-0----0---0----0---|-3----3-----------|


  Q  E S S Q  E S S   Q  E S S Q  E E   Q  E S S Q  E S S
|-------------------|-----------------|--------------------|
|-------------------|-----------------|--------------------|
|-------------------|----------0----0-|--------------------|
|-3----3---3----3---|-3----3----------|-3----3---3----3----|


  Q  E S S Q  E E   Q  E S S Q  E S S   Q  E S S Q  E S S
|-----------------|-------------------|--------------------|
|-----------------|-------------------|--------------------|
|----------0----0-|-------------------|----------0----0----|
|-3----3----------|-0----0---0----0---|-3----3-------------|


  Q  E S S Q  E S S   Q  E S S Q  E E   Q  E S S Q  E S S
|-------------------|-----------------|--------------------|
|-------------------|-----------------|--------------------|
|-------------------|----------0----0-|--------------------|
|-0----0---0----0---|-3----3----------|-3----3---3----3----|


  Q  E S S Q  E E   Q  E S S Q  E S S   Q  E S S Q  E E
|-----------------|-------------------|-----------------|
|-----------------|-------------------|-----------------|
|----------0----0-|-------------------|----------0----0-|
|-3----3----------|-3----3---3----3---|-3----3----------|


  Q  E S S Q  E S S   Q  E S S Q  E S S   Q  E S S Q  E S S
|-------------------|-------------------|-------------------|
|-------------------|-------------------|-------------------|
|-------------------|----------0----0---|-------------------|
|-0----0---0----0---|-3----3------------|-0----0---0----0---|


  Q  E S S Q  E E   Q  E S S Q  E S S   Q  E S S Q  E E
|-----------------|-------------------|-----------------|
|-----------------|-------------------|-----------------|
|----------0----0-|-------------------|----------0----0-|
|-3----3----------|-3----3---3----3---|-3----3----------|


  Q  E S S Q  E S S   Q  E S S Q  E E   Q  E S S Q  E S S
|-------------------|-----------------|--------------------|
|-------------------|-----------------|--------------------|
|-------------------|----------0----0-|-2----2---2----2----|
|-3----3---3----3---|-3----3----------|--------------------|


  Q  E E Q  E S S   Q  E S S Q  E S S   Q  E E Q  E S S
|-----------------|-------------------|-----------------|
|-0----0----------|-------------------|-0----0----------|
|-----------------|-2----2---2----2---|-----------------|
|--------3----3---|-------------------|--------3----3---|


  Q  E S S Q  E S S   Q  E S S Q  E S S   Q  E S S Q  E S S
|-------------------|-------------------|-------------------|
|-------------------|-------------------|-------------------|
|-0----0---0----0---|-------------------|-0----0---0----0---|
|-------------------|-3----3---2----2---|-------------------|


  Q  E S S Q  E S S   Q  E S S Q  E S S   Q  E E Q  E S S
|-------------------|-------------------|------------------|
|-------------------|-------------------|-0----0-----------|
|-------------------|-2----2---2----2---|------------------|
|-2----2---2----2---|-------------------|--------3----3----|


  Q  E S S Q  E S S   Q  E E Q  E S S   Q  E S S Q  E S S
|-------------------|-----------------|--------------------|
|-------------------|-0----0----------|--------------------|
|-2----2---2----2---|-----------------|-0----0---0----0----|
|-------------------|--------3----3---|--------------------|


                                          Gtr I
  Q  E S S Q  E S S   Q  E S S Q  E S S   H    +Q   Q    H    +Q   +S  S E
|-------------------|-------------------|--------------|--------------------|
|-------------------|-------------------|--------------|--------------------|
|-------------------|-0----0---0----0---|-3----3-----|-2----2--2------|
|-3----3---2----2---|-------------------|--------------|--------------------|


  W          W          W          W
|----------|----------|----------|------|
|----------|----------|----------|------|
|----------|----------|----------|------|
|----------|----------|----------|------|


  Gtrs I, II
  Q  E S S Q  E S S   Q  E S S Q  E S S   Q  E S S Q  E S S
|-------------------|-------------------|-------------------|
|-------------------|-------------------|-------------------|
|-------------------|----------0----0---|-------------------|
|-0----0---0----0---|-3----3------------|-0----0---0----0---|


  Q  E S S Q  E E   Q  E S S Q  E S S   Q  E S S Q  E E
|-----------------|-------------------|-----------------|
|-----------------|-------------------|-----------------|
|----------0----0-|-------------------|----------0----0-|
|-3----3----------|-3----3---3----3---|-3----3----------|


  Q  E S S Q  E S S   Q  E S S Q  E E   Q  E S S Q  E S S
|-------------------|-----------------|--------------------|
|-------------------|-----------------|--------------------|
|-------------------|----------0----0-|--------------------|
|-3----3---3----3---|-3----3----------|-0----0---0----0----|


  Q  E S S Q  E S S   Q  E S S Q  E S S   Q  E S S Q  E E
|-------------------|-------------------|------------------|
|-------------------|-------------------|------------------|
|----------0----0---|-------------------|----------0----0--|
|-3----3------------|-0----0---0----0---|-3----3-----------|


  Q  E S S Q  E S S   Q  E S S Q  E E   Q  E S S Q  E S S
|-------------------|-----------------|--------------------|
|-------------------|-----------------|--------------------|
|-------------------|----------0----0-|--------------------|
|-3----3---3----3---|-3----3----------|-3----3---3----3----|


  Q  E S S Q  E E   Q  E S S Q  E S S   Q  E S S Q  E S S
|-----------------|-------------------|--------------------|
|-----------------|-------------------|--------------------|
|----------0----0-|-------------------|----------0----0----|
|-3----3----------|-0----0---0----0---|-3----3-------------|


  Q  E S S Q  E S S   Q  E S S Q  E E   Q  E S S Q  E S S
|-------------------|-----------------|--------------------|
|-------------------|-----------------|--------------------|
|-------------------|----------0----0-|--------------------|
|-0----0---0----0---|-3----3----------|-3----3---3----3----|


  Q  E S S Q  E E   Q  E S S Q  E S S   Q  E S S Q  E E
|-----------------|-------------------|-----------------|
|-----------------|-------------------|-----------------|
|----------0----0-|-------------------|----------0----0-|
|-3----3----------|-3----3---3----3---|-3----3----------|


  Q  E S S Q  E S S   Q  E S S Q  E S S   Q  E S S Q  E S S
|-------------------|-------------------|-------------------|
|-------------------|-------------------|-------------------|
|-------------------|----------0----0---|-------------------|
|-0----0---0----0---|-3----3------------|-0----0---0----0---|


  Q  E S S Q  E E   Q  E S S Q  E S S   Q  E S S Q  E E
|-----------------|-------------------|-----------------|
|-----------------|-------------------|-----------------|
|----------0----0-|-------------------|----------0----0-|
|-3----3----------|-3----3---3----3---|-3----3----------|


  Q  E S S Q  E S S   Q  E S S Q  E E   Q  E S S Q  E S S
|-------------------|-----------------|--------------------|
|-------------------|-----------------|--------------------|
|-------------------|----------0----0-|--------------------|
|-3----3---3----3---|-3----3----------|-0----0---0----0----|


  Q  E S S Q  E S S   Q  E S S Q  E S S   Q  E S S Q  E E
|-------------------|-------------------|------------------|
|-------------------|-------------------|------------------|
|----------0----0---|-------------------|----------0----0--|
|-3----3------------|-0----0---0----0---|-3----3-----------|


  Q  E S S Q  E S S   Q  E S S Q  E E   Q  E S S Q  E S S
|-------------------|-----------------|--------------------|
|-------------------|-----------------|--------------------|
|-------------------|----------0----0-|--------------------|
|-3----3---3----3---|-3----3----------|-3----3---3----3----|


  Q  E S S Q  E E   Q  E S S Q  E S S   Q  E E Q  E S S
|-----------------|-------------------|-----------------|
|-----------------|-------------------|-0----0----------|
|----------0----0-|-2----2---2----2---|-----------------|
|-3----3----------|-------------------|--------3----3---|


  Q  E S S Q  E S S   Q  E E Q  E S S   Q  E S S Q  E S S
|-------------------|-----------------|--------------------|
|-------------------|-0----0----------|--------------------|
|-2----2---2----2---|-----------------|-0----0---0----0----|
|-------------------|--------3----3---|--------------------|


  Q  E S S Q  E S S   Q  E S S Q  E S S   Q  E S S Q  E S S
|-------------------|-------------------|-------------------|
|-------------------|-------------------|-------------------|
|-------------------|-0----0---0----0---|-------------------|
|-3----3---2----2---|-------------------|-2----2---2----2---|


  Q  E S S Q  E S S   Q  E E Q  E S S   Q  E S S Q  E S S
|-------------------|-----------------|--------------------|
|-------------------|-0----0----------|--------------------|
|-2----2---2----2---|-----------------|-2----2---2----2----|
|-------------------|--------3----3---|--------------------|


  Q  E E Q  E S S   Q  E S S Q  E S S   Q  E S S Q  E S S
|-----------------|-------------------|--------------------|
|-0----0----------|-------------------|--------------------|
|-----------------|-0----0---0----0---|--------------------|
|--------3----3---|-------------------|-3----3---2----2----|


                      Gtr I
  Q  E S S Q  E S S   H    +Q   Q    H    +Q   +S  S E   W
|-------------------|--------------|-------------------|------|
|-------------------|--------------|-------------------|------|
|-0----0---0----0---|-3----3-----|-2----2--2-----|------|
|-------------------|--------------|-------------------|------|


  Gtrs I, II
  W          W          W          Q  E S S Q  E S S
|----------|----------|----------|-------------------|
|----------|----------|----------|-------------------|
|----------|----------|----------|-------------------|
|----------|----------|----------|-0----0---0----0---|


  Q  E S S Q  E S S   Q  E S S Q  E S S   Q  E S S Q  E E
|-------------------|-------------------|------------------|
|-------------------|-------------------|------------------|
|----------0----0---|-------------------|----------0----0--|
|-3----3------------|-0----0---0----0---|-3----3-----------|


  Q  E S S Q  E S S   Q  E S S Q  E E   Q  E S S Q  E S S
|-------------------|-----------------|--------------------|
|-------------------|-----------------|--------------------|
|-------------------|----------0----0-|--------------------|
|-3----3---3----3---|-3----3----------|-3----3---3----3----|


  Q  E S S Q  E E   Q  E S S Q  E S S   Q  E S S Q  E S S
|-----------------|-------------------|--------------------|
|-----------------|-------------------|--------------------|
|----------0----0-|-------------------|----------0----0----|
|-3----3----------|-0----0---0----0---|-3----3-------------|


  Q  E S S Q  E S S   Q  E S S Q  E E   Q  E S S Q  E S S
|-------------------|-----------------|--------------------|
|-------------------|-----------------|--------------------|
|-------------------|----------0----0-|--------------------|
|-0----0---0----0---|-3----3----------|-3----3---3----3----|


  Q  E S S Q  E E   Q  E S S Q  E S S   Q  E S S Q  E E
|-----------------|-------------------|-----------------|
|-----------------|-------------------|-----------------|
|----------0----0-|-------------------|----------0----0-|
|-3----3----------|-3----3---3----3---|-3----3----------|


  Q  E S S Q  E S S   Q  E S S Q  E S S   Q  E S S Q  E S S
|-------------------|-------------------|-------------------|
|-------------------|-------------------|-------------------|
|-------------------|----------0----0---|-------------------|
|-0----0---0----0---|-3----3------------|-0----0---0----0---|


  Q  E S S Q  E E   Q  E S S Q  E S S   Q  E S S Q  E E
|-----------------|-------------------|-----------------|
|-----------------|-------------------|-----------------|
|----------0----0-|-------------------|----------0----0-|
|-3----3----------|-3----3---3----3---|-3----3----------|


  Q  E S S Q  E S S   Q  E S S Q  E E
|-------------------|-----------------*|
|-------------------|-----------------*|
|-------------------|----------0----0-*|
|-3----3---3----3---|-3----3----------*|

FIN!!!
- BUENO AQUI ABAJO ESTA EL SIGNIFICADO DE LAS LETRAS Y LOS SIGNOS...
- ESPERO QUE LES HAYA AGRADADO Y SOBRETODO QUE LE HAYAN ENTENDIDO...
- POR SI ALGUNA RAZON NO LE ENTIENDEN PUES HECHENME UN MAIL A: sNaKePiTs@guitar.com
- SI QUIEREN ALGUNA PETICION PUES TAMBIEN HECHENME UN MAIL...
- ESTA CANCION Y OTRAS LAS TENGO EN ARCHIVOS POWERTAB, POR SI ALGUIEN LA QUIERE...
  PUES HECHENME UN MAIL PIDIENDOLAS...
- LOS VERE EN LA PROXIMA CANCION!!!...


NOTA!!!: PUEDEN UTILIZAR ESTA TAB PARA PUBLICARLA DONDE USTEDES
QUIERAN, PERO POR FAVOR LES RUEGO QUE ME DEN LOS CREDITOS COMO
TRANSCRIPTOR DE LA MISMA...GRACIAS!!!

NESTOR SADAO ARECHIGA CERVANTES sNaKePiTs@guitar.com


LEYENDA DE LAS NOTAS:

W = REDONDA     NOTA COMPLETA
H = BLANCA      MEDIA NOTA
Q = NEGRA       CUARTO DE NOTA
E = CORCHEA     OCTAVO DE NOTA
S = SEMICORCHEA DIECISEISAVA DE NOTA
T = FUSA        TREINTAIDOSAVA DE NOTA
X = SEMIFUSA    SESENTAICUATROAVA DE NOTA

a  =  ACCIACCATURA
+  =  LIGADURA
.  =  AUMENTA LA DURACION DE LA NOTA
.. =  AUMENTA LA DOBLE DE LA DURACION DE LA NOTA


LEYENDA DEL PENTAGRAMA
 |  - COMPAS
||  - DOBLE COMPAS
||o - ES DONDE VA A COMENZAR CUANDO ALGO SE VA A REPETIR
o|| - ES DONDE VA A TERMINAR CUANDO ALGO SE VA A REPETIR
*|  - FIN DE LA CANCION
 :  - COMPAS LIBRE
 $  - SEGNO AL VER ESTE SIGNO, TENEMOS QUE RETROCEDER HASTA VER EL SIGNO ANTERIOR $...
 &  - CODA SIGNIFICA QUE DEBES PASAR LA SIGUIENTE SIGNO &

Fuente original ATAME [www.atame.org]
Colaborador original: sNaKePiTs [Nestor Sadao Arechiga Cervantes]

Fuente: tusacordes.com