a b c d e f g h i j k l m n o p q r s t u v w x y z 0-9

La Ciudad De La Furia (unplugged)

Soda Stereo

			
Bueno, desde que escuché esta canción por primera vez pensé Ohh 
Dios que bien toca Gustavo Cerati!! Entonces me reté a mi mismo a 
sacar este solo en guitarra así fuera lo ultimo que hiciera y creo
que 4 años después lo logré. Bueno algunas recomendaciones 
antes de empezar son, tómeselo con calma ya que tocar como Cerati 
requiere tiempo y mucha practica, así que ánimo!


Efectos Utilizados:

Guitarra Parker-Fly http://www.parkerguitars.com/
Multiefectos Digitech (Delay,Wah-Wah,Overdrive, Repetidores,etc) http://www.digitech.com/


Indicaciones

1012  	Slide 
12^^	  	Full 1 tono
12^		Full 1/2 tono	
10h12	Hammer On 
12p10	Pull Off
~~~~	 	Vibración	
12^12	Esto significa subir un tono en Full y volver a bajarlo.
xx		Rasgado rápido sobre la misma cuerda.
+		Wah Abierto sobre el talón
-		Wah Cerrado sobre la punta del pie

Algunos segmentos de la canción que están entre /*, están explicados a continuación:

1 Para tocar esta parte con más facilidad he escrito los dedos 
sobre cada una de las notas para poder hacer los desplazamientos 
en las escalas más rápidamente. 1= índice, 2= medio; 3= anular; 4= 
meñique.


Acordes
Em 022033
G  320033
Bm 024432	

 
Minuto 7:08	        1*/   1 2 4  2   4   2 4  2  4  2  	1
 Em   		         
----------------------------------------------10---------------10-
---------------------------------------10-12----12-10-12-1012----
-7~~~~--7--9--11?-7-?9---------7-9-11----------------------------
-------------------------9~~~~------------------------------------
------------------------------------------------------------------
------------------------------------------------------------------


		       G
				   
  3  1  3    1   3  1  3 */
  				   
----10-------12----12?15^^----15-14-15-14-------------------------
-12----1214----14------------------------15----------------------
---------------------------------------------14-12-111211-~~~~--
------------------------------------------------------------------
------------------------------------------------------------------
------------------------------------------------------------------


					                   +
------------------------------------------------------------------
----------------------------------------11-12-11-12-11-12-11-12---
-11h12p11----11-------------------11-12---------------------------
----------14----12-14-------12-14---------------------------------
----------------------12-14---------------------------------------
------------------------------------------------------------------



+	+	+	+	+	              Em+	
------------------------------------------------------3-////7/--
11-12-14-12-11----11-12-11-12-11----------------------3-|||||||---
---------------12----------------12-11-9----9----9----0-\--
-----------------------------------------12---12------------------
------------------------------------------------------------------
------------------------------------------------------------------




  +	+	         -   	-	-	   +   +    +

-?14^^-12-10-12---------------------------------------------------
----------------11-12-11------------------------------------------
-------------------------11-12-11--9-11-9--7-9-7---2^^-2^^-2^^2^^-
------------------------------------------------------------------
------------------------------------------------------------------
------------------------------------------------------------------


 +  +    +		Bm
--------------------7--14?-14^^-14^14p12h14-12-10-12-1012-12^---
------------------------------------------------------------------
-2^^2^^--2^2p0----------------------------------------------------
---------------2~~~-----------------------------------------------
------------------------------------------------------------------
------------------------------------------------------------------



------------------------------------------------------------------
-12^12p1012-12^--------------------------------------------------
-----------------14-12--------------------------------------------
-----------------------14-12-14p1214^--------14-xx-16-xx-17-xx---
------------------------------------------------------------------
------------------------------------------------------------------


				     Em
--------------------------------14?--17^^--17^17^---19^^-191719-
---------------------15-xx-17-xx------------------17--------------
--14-xx-16-xx-17-xx-----------------------------------------------
------------------------------------------------------------------
------------------------------------------------------------------
------------------------------------------------------------------



		+		     Bm
-19~~~~~--3-/////--------------14-15-19~~~~-22~~17~~16~~----------
----------3-|||||--------15-17-------------------------17~~15~~---
----------0--------------------------------------------------
------------------------------------------------------------------
------------------------------------------------------------------
------------------------------------------------------------------



							    Em
-------------------------------------12--14?15xx?17xx-22xx?-24----
--------------------------12~~15~~--------------=-----------------
-14^14-12---------12~~14~~----------------------------------------
----------12~~14~~------------------------------------------------
------------------------------------------------------------------
------------------------------------------------------------------


FIN

Bueno espero que les haya parecido bien tabulada esta canción, que
personalmente considero una obra maestra y a Cerati como un
excelente musico!! Y a Andrea una excelente cantante colombiana. 
Viva el Rock Colombiano!!.

Que viva el barrio el Quirinal de Bogota!!

Cualquier comentario, agradecimiento, solicitud you can write back 
a julianmelo@hotmail.com

Fuente original ATAME [www.atame.org]
Colaborador original: Julian David Melo Alvarado [Julianmelo@hotmail.com]

Fuente: tusacordes.com