a b c d e f g h i j k l m n o p q r s t u v w x y z 0-9

Juego De Seduccion

Soda Stereo

			
Intro / solo de guitarra   0:14

1/------------------------
2/------------------------
3/---2--------------------
4/-----2-----5----0-------


Estrofa

1/--------------------------------------------------------------
2/--------------------------------------------------------------
3/--1--111------------------------------------------------------
4/---------2--222--------5--555----0--000-----------------------


Coro

1/---------------------------------------
2/---------------------------------------
3/---1/22--------------------------------
4/---------1/22------4/55----------------


Medio                                         minuto 1:40

1/--------------------------------------------------------------
2/--------------------------------------------------------------
3/--------------------------------------------------------------
4/-----2-2-------5--4----2-2-----5-4----2-2-------5-4-----------



Repite lo de la estrofa con un agregado

1/-------------------------------------------------------------- x3
2/--------------------------------------------------------------
3/--1--111------------------------------------------------------
4/---------2--222--------5--555----0--000-----------------------


1/----------------------------------------------------------- x 1
2/-----------------------------------------------------------
3/--1--------------------------------------------------------
4/---------2----------5------------0-------------------------


Coro

1/---------------------------------------
2/---------------------------------------
3/---1/22--------------------------------
4/---------1/22------4/55----------------


Final

1/--------------------------------------------------------------
2/--------------------------------------------------------------
3/--------------------------------------------------------------
4/-----2-------5--4----2------5-4----2------2--------5/7--------

Suerte y cauqleuir correcion me mandan un MAIL - jOHNNY -infame.

Fuente original ATAME [www.atame.org]
Colaborador original: Jonatan [juegosdeseduccion@hotmal.com]

Fuente: tusacordes.com