a b c d e f g h i j k l m n o p q r s t u v w x y z 0-9

Imágenes Retro

Soda Stereo

			
Intro

E---------12---10----8----777-------
B---10----10---10----10---888-------
G---9-----9----9-----10---999-------
D---10----10---10-------------------
A-----------------------------------
E----------------------------------- x3

Luego un SOL y
E--777-|--888--|--7--
B--888-|--888--|--8--
G--777-|--777--|--7--
D------|-------|-----
A------|-------|-----
E------|-------|-----

Verso
LAm               MI
Debo tomar el antidoto
   SOL              REm
para romper con la rigidez   E--5-----|--5---7--|--5-----8
                             B--5-6---|--5-6----|--5-6----
                             G--5---7-|--5------|--5------
                             D--5---7-|--5---7--|--5---7--
                             A--5-----|--5------|--5------
                             E--5-----|--5------|--5------
LAm                 MI
vivo como un sonambulo
  SOL                  REm
buscando pliegues en la pared  ohh

Coro:
 FA         SOL
telerañas
       FA            SOL
sueño con telarañas
 FA         SOL
telarañas

      E----2--|--3---|--3----
      B----3--|--3---|--3----
      G----2--|--2---|-------
      D-------|------|--2----
      A-------|------|--3----
      E-------|------|-------
que cuelgan de mi

intro x2

Verso
LAm               MI
Esto parece un museo de cera
  SOL             REm
un simulacro demasiado real E--5-----|--5---7--|--5-----8
                            B--5-6---|--5-6----|--5-6----
                            G--5---7-|--5------|--5------
                            D--5---7-|--5---7--|--5---7--
                            A--5-----|--5------|--5------
                            E--5-----|--5------|--5------
 LAm                 MI
debo encontrar algun sitio afuera
  SOL               REm
debo cambiar la escena entre

Coro:
FA         SOL
telerañas
       FA            SOL
sueño con telarañas
 FA         SOL
telarañas
      E---2--|--3---|--3----
      B---3--|--3---|--3----
      G---2--|--2---|-------
      D------|------|--2----
      A------|------|--3----
      E------|------|-------
que cuelgan de mi

SOL         LA              FA
Mis ojos perciben otra vez
         Mim luego tocan las tres primeras cuerdas
imagenes retro
SOL       LA               FA
asi es la trama de este film
          MIm                 (LAm - REm x4)
tu propio reflejo... reflejo

 SOL         LA              FA
Mis ojos perciben otra vez
          Mim luego tocan las tres primeras cuerdas
imagenes retro
 SOL       LA             FA
reproduciendose sin fin
          MIm
dejandome inmovil entre

Coro: x2

FA         SOL
telerañas
       FA            SOL
sueño con telarañas
 FA         SOL
telarañas

         E---2--|--3---|--3----
         B---3--|--3---|--3----
         G---2--|--2---|-------
         D------|------|--2----
         A------|------|--3----
         E------|------|-------
que cuelgan de mi

wuuuuuuuuoouoohh
intro x 2

y terminaa en

E---2--|--3---|--3----
B---3--|--3---|--3----
G---2--|--2---|-------
D---- -|------|--2----
A------|------|--3----
E------|------|------- x 4


Una de las canciones que quería que tocaran en el me veras
volver.
Espero que la encuentren buena, saaludos.
Soda stereo, lo mas grande del rock latino.Fuente: Tus acordes