a b c d e f g h i j k l m n o p q r s t u v w x y z 0-9

Hombre Al Agua

Soda Stereo

			
QUE ONDA SODA-FANS YA EXISTEN 2 TRANSCRIPCIONES DE ESTA 
ROLA PERO NADIE SACO LOS PUNTEOS ASI QUE ME TOME LA MOLESTIA 
DE HACERLO YO Y AHI SE LOS MANDO ESPERO QUE LES GUSTE...
SALUDOS A LA RAZA DE TAMPICO  Y AMI NOVIA ADRIANA QUE LA 
AMO


INTRO [ E Em A ] 2  E
 Em             A                  E
Meses navegando, tierra a la vista
 Em                 A         E
todo volvera a ser como fue
     Em              A                     E
las luces en la costa son faros del pasado
     Em             A         C
todo volvera a ser como fue
                           D A F#m A C En lugar de estas notas va el sig. punteo
  b-------------------------------1------------------
  g-2--1--2--1-----------1--2--4-----4--2--1---------
  d-------------4--2--4-----------------------2------

Y cuando salto de cubierta
                              aqui se toca este otro punteo  
  
  e------------------------12v------------------9--10-9----
  b-----5v-----5v--10v-12-----------------------10-10-10---
  g--------------------------------9----9-12-9--9--9--9----
  d--------------------------------------------------------
  a--------------------------------------------------------
  E--0------0-------------------0----0---------------------

                     [ E Em A ] 2  E 
y me abandono a la corriente

 Em                 A                   E
Nuevas formas crecen son tan atractivas
  Em                 A        C
quiero descansar de todo ayer
                           D A F#m A C Nuevamente aqui va el primer punteo
  
  b-------------------------------1------------------
  g-2--1--2--1-----------1--2--4-----4--2--1---------
  d-------------4--2--4-----------------------2------


y voy flotando por el rio
                            A
voy envuelto en la corriente

E           G  A C
Hombre al agua
E              G  A C
voces que se agitan
E           G  A C
hombre al agua
E             G  A C  [ E Em A ] 2   C
barco a la deriva

SOLO DE EN MEDIO Metanle un poco de Distorsión

  e--12----12----12----12------------------------------------------------------------9---7----5----3------ 
  b-----15----15----15----15---12-12-12-12-12-12-14-12-14-12-14-12---14-----------------------------------
  g----------------------------12-12-12-12-12-12-14-12-14-12-14-12------14--------------9---7----6----4---
  d------------------------------------------------------------------------14-12-14-----------------------
  a-------------------------------------------------------------------------------------------------------
  E-------------------------------------------------------------------------------------------------------

                          D A F#m A C
y voy flotando por el rio
                            A
voy envuelto en la corriente

E           G  A C
Hombre al agua
E              G  A C
voces que se agitan
E           G  A C
hombre al agua
E             G  A C
barco a la deriva
Bm        A         E
amanecio, abre los ojos
     Bm                     D           E
me ire con estas olas no estes preocupada
 F#m            E         G   A   E G A C
todos gritaran hombre al agua
E              G  A C   E G A C
voces que se agitan
E             G  A C
barco a la deriva
E              G  A C   E G A C
voces que se agitan
E             G  A C    E G A C
barco a la deriva
E              G  A C   E G A C
voces que se agitan...

 ESPERO QUE LES GUSTE SI VEN QUE LA CAGUE MANDENME UN MAIL AHHH Y
YA ESTOY SACANDO EL SOLO FINAL DE LA CIUDAD DE LA FURIA UN PLUGGED ESPERON PRONTO

Fuente original ATAME [www.atame.org]
Colaborador original: Luis Salazar [ceratistereo@latinmail.com]

Fuente: tusacordes.com