a b c d e f g h i j k l m n o p q r s t u v w x y z 0-9

Hombre Al Agua

Soda Stereo

			
1/------------------------------------------------------------------------------------------
2/-----------------------------------------------5----------------------------------------
3/--7--5-----5--7---------5---7--5------5---7------7--5-------------------4--
4/---------7---------5--7------------5-----------------------------5--3--5----------


1/------------------------------------------------------------------------------------------ 
2/------------------------------------------------------------------------------------------
3/----------------4--4-------------4------5--4--------------------------------------
4/----5--3--5----------5--7--5-------5-----------------------------------------------

Bridge
        
1/------------------------------------------------------------------------------------------
2/------------------------------------------------------------------------------------------
3/----3--(x--16)----5--(x--4)---------------------------------5--3-----------------
4/-----------------------------------5---(x--4)----2(x--4)--5------------------------

Coro
     
1/------------------------------------------------------------------------------------------
2/------------------------------------------------------------------------------------------
3/------------------------------------------3--3--3-------------------------------------
4/--0--0----0--3--3------3--5--5-----5--------------5--3--5---------------------

Disonante
     
1/------------------------------------------------------------------------------------------
2/------------------------------------------------------------------------------------------
3/--2--(x--8)---0--0------0--7--7--5--7------2---(x--8)-----5--5-------------
4/----------------------------------------------------------------------0--0--------------

    
1/------------------------------------------------------------------------------------------
2/------------------------------------------------------------------------------------------
3/------------------------------------------------------------------------------------------
4/--2---x  8--0--0----0--3--3----3--5-------------------------------------------

*  En la primera parte hay ligeros arreglos, pero esa es la base.
*  En el coro también hay un arreglo, pero así está bien.
*  Hay tocarlo  muy bien, pues el encanto de esta canción es el bajo.
*  Cualquier corrección, duda o sugerencia, mandarla a:

Fuente original ATAME [www.atame.org]
Colaborador original: Rodolfo Cáliz [rospino@claustro.urosario.edu.co]

Fuente: tusacordes.com