a b c d e f g h i j k l m n o p q r s t u v w x y z 0-9

Entre Canibales

Soda Stereo

Em
D
Am7
Am
C
			
 
intro...[versos]
       
 1ª+---------------------+
   |---------------------|
   |---------------------|
   |---------------------|
   |--7-0-2-3--5---------|
 6ª+-------------2-3-5---+
     [Em] [C*][D]   [Am7]  

 [Repite varias veces y queda mejor si 
tambien se lo toca durante los versos]

       
Verso I
  
     Em   Cmaj7/G D Am7      Em Cmaj7/G    D   Am7 
Una eternidad ,          espere este instante 
         Em Cmaj7/G D Am7      Em Cmaj7/G     D       Am7   C7
y  no lo dejare           deslizar   en    recuerdos viejos 
      D5                     E7
y en balas razantes que matan ...



estribillo

Am7 G5 D4/F#     Em7          Am        G5 D4/F# Em7 
Ahhh    come de  mi      come de mi carne         

Am7 G5 D4/F#     Em7    Am G5   D4/F# Em7     
Ahhh            entre canibales 

Em  Cmaj7/G D          Am7         Em Cmaj7/G  D Am7  
Ahhh        tomate el tiempo en desmenuzarme  

Em  Cmaj7/G D   Am7           C     D C  D C   D C  D
Ahhh               entre canibales 


Verso II


        Em   Cmaj7/G D Am7      Em Cmaj7/G      D   Am7 
Entre canibales            el dolor   es     veneno nena 
        Em   Cmaj7/G D Am7          Em Cmaj7/G      D   Am7 C7
y no sentiras              hasta el fin mientras te muevas lento 
    D7                        E7
y jadees el nombre que mataahh....




 1ª+--0--------0--------2--------0-----+
   |--0--------0--------3--------1-----|
   |--0--------0--------2--------0-----|
   |--2--------2--------0--------2-----|
   |--2--------3--------x--------0-----|
 6ª+--0--------3--------x--------x-----+
     Em      Cmaj7/G     D       Am7
               [c*]

       
 1ª+--0--------2--------3--------3---+
   |--1--------2--------3--------3---|
   |--0--------0--------2--------0---|
   |--2--------0--------0--------2---|
   |--0--------2--------0--------2---|
 6ª+--x--------3--------2--------0---+
     Am7       G5      D4/F#    Em7
  

Fuente: tusacordes.com