a b c d e f g h i j k l m n o p q r s t u v w x y z 0-9

En La Ciudad De La Furia

Soda Stereo

			
para los q recien empiezan recuerden q la cuerda 1 es la mas finaaguda


1-3--------3----- ------10-------------10------
2-3--------3----- ---10-----------10-----------
3-0--------0----- -9--------9------------------
4-2--------0----- -----------------------------
5-3--------2----- -----------------------------
6----------3----- -----------------------------


1------------------------------------
2---------3--------------3--------2--
3-------0----------------------------
4-----2---------------0---------2----X 2
5-----------------------------0------
6--0--------------3------------------

1---------3--------2--3--2--0---------
2-------3--------3--------------------
3----0--------------------------------
4-------------------------------------
5-------------------------------------
6--3----------------------------------

--------------------aguante sportsman---------------------------

Fuente: tusacordes.com