a b c d e f g h i j k l m n o p q r s t u v w x y z 0-9

Ella Uso Mi Cabeza Con Un Revolver

Soda Stereo

			
Ella uso mi cabeza como un revolver
Soda Stereo


Intro

G-----------
D-----------
A--3--------
E-----1-----
x4

G---------------------
D---------------------
A-3-3-3-66-6-5-5-4-4-
E---------------------x4
Esto sería el riff principal

Ella uso mi cabeza como un re-
G------------------
D------------------
A-33----------66---
E-----00--55-------

Do        Mim   Sib    Rem    Sol
 Me vi llegando tarde tarde a todo

Sib                     Lam
 despues de un baño cerebral
G----------------------------
D----------------------------
A-6666Xveces--5555xveces-
E----------------------------

Sib
 estaba listo para ser amado

A--6666xveces-----

Lab                 Sol
 Pasa el tiempo y ahora creo que

Lab          Sol          Do
 el vacio es un lugar normal

Riff
ella uso mi cabeza como un ......

Riff x2

No creerias las cosas......

Fui tan docil como un.......

Riff x4
Intro x2
Sib7 La7 Lab7 Sol7 x2 con tonicas

No creerias las cosas que he hecho......

Fuente original ATAME [www.atame.org]
Colaborador original: Martin tummino [tummino@bariloche.com.ar]

Fuente: tusacordes.com