a b c d e f g h i j k l m n o p q r s t u v w x y z 0-9

Ella Uso Mi Cabeza Como Un Revolver

Soda Stereo

			
Ella Uso Mi Cabeza Como Un Revolver. unplugged
intro:

-------------------------------
-------------------------------
-------------------------------
--6666--5555--4444--2222-------
--5555--4444--3333--3333-------  X2
--6666--5555--4444--2222-------

solo de el principio:

------------------------------------------
------------------------------------------
-----0-2-2h3---3-2-0----------------------
-0-2-----------------1-0----0-2-3---------
----------------------------------2h3-----
--------------------------------------1---

--------------------------
--------------------------
--------------------------
--33--666--555--4444------
--22--555--444--3333------
--33--666--555--4444------

En el verso va así:

------------------------------------------
------------------------------------------
------------------------------------------
------------------------------------------
-6~~~---5~~~---4~~~---3~~~----------------
------------------------------------------

antes del ultimo solo va asi:


------------------------I--------------------------
------------------------I--------------------------
------------------------I--------------------------
-33--666--555--444~4----I--33--666~6--555~5--444~4-
-22--555--444--333~3----I--22--555~5--444~4--333~3-
-33--666--555--444~4----I--33--666~6--555~5--444~4-


El ultimo solo no le he sacado
si alguien lo saca publiquenlo en atame.

Fuente original ATAME [www.atame.org]
Colaborador original: jorge [jorge_corvette@hotmail.com]

Fuente: tusacordes.com