a b c d e f g h i j k m n o p q r s t x v w y z 0-9

El Rito

Soda Stereo

			
Este es el solo que va entre estrofa y estrofa.

pero a cada segundo estare mas cerca, 
mas, mas... y viene esto. 

1-----------------------8-8-8-10-----
2-----------------3-5---8-8-8-10-----
3--------4------4-----3--------------
4----4-5----4-5----------------------
5--7-------7-------------------------
6------------------------------------

 *apartir de aqui arpegear en re, no 
  van las notas sueltas
1--------------------------2---------2
2----------------------3-----3---3----
3--------4-------4--*2---2-----2---2--
4----4-5-----4-5----------------------
5--7-------7--------------------------
6-------------------------------------

lo anterior se vuelve a repetir. Sólo que ahora despues
de los acordes re, re&, sol y do.  Despues ya viene el 
final que es este:

Termina la letra y se tocan nuevamente los acordes re,
re&, sol y do y despues de repetirlos algunas veces
mientras se sigue cantando desafiando al rito alter-
nado con destruyendo mitos entra esto.

1-------------------------------------------------
2----------------------------------8-6-5-6-5------
3----------7-----------7-5-4-5-4-------------7-5-7
4------5-7-------5-7-5-----------5----------------
5--5-7-------5-7----------------------------------
6-------------------------------------------------

para finalizar la cancion , solo al final se toca 
un poco mas lento y en vez de tocar la ultima nota 
3ra cuerda traste 7 se toca el acorde de sol.

re                  *los acordes estan puestos de la 
5                   primera a la sexta cuerda. 
7
7
7
5
5

re&
5
5
5
7
5
5

sol
3
3
4
5
5
3

do
3
5
5
5
3
3

los acordes para toda la cancion son los siguientes:
fa y sol para  soy un profanador... etc.
mi-, la, do9 y sol para sueles encontrarme...
y los solos y acordes que ya explique anteriormente.  


realmente es muy sencillo, pero ayuda escuchar
la cancion por los tiempos, sobre todo para tocar 
el final.

Fuente original ATAME [www.atame.org]<br>Colaborador original: ricardo saugui
[saugui@hotmail.com]<p>Fuente: tusacordes.com</p>