a b c d e f g h i j k l m n o p q r s t u v w x y z 0-9

El Rito

Soda Stereo

			
El punteo final del rito es bastante sencillo, 
solo tienen que tener en mente como se toca.

Referencias:  arrastra
             Nº superpuestos se tocan juntos

e-----------------------------------------------------------------
B--------------------------------------58-6-5-6-5-3-1-3----------
G----------5----------5-5--4-3-4-3--5-----------------------------
D----2-4-5------2-45---------------------------------------------
A--3----------3---------------------------------------------------
E-----------------------------------------------------------------

e-----------------------------------------------------------------
B--------------------------------------58-6-5-6-5-3-1-3----------
G----------5----------5-5--4-3-4-3--5-----------------------------
D----2-4-5------2-45---------------------------------------------
A--3----------3---------------------------------------------------
E-----------------------------------------------------------------

En el último concierto no hace esto, pero en demás versiones sí

e---8-8-8--8-8-8--7--7-7--7-7-7--6-6-6--5--3-3--3-3--3-3---------
B---8-8-8--6-6-6--5--5-5--6-6-6--4-4-4--3--1-1--3-3--1-1---------
G----------------------------------------------------------------
D----------------------------------------------------------------
A----------------------------------------------------------------
E----------------------------------------------------------------

e---8-8-8--8-8-8--7--7-7--7-7-7--6-6-6--5--3-3--3-3--3-3---------
B---8-8-8--6-6-6--5--5-5--6-6-6--4-4-4--3--1-1--3-3--1-1---------
G----------------------------------------------------------------
D----------------------------------------------------------------
A----------------------------------------------------------------
E----------------------------------------------------------------

Al final desacelera y termina en F.
e-------------------------------------------------------1---------
B--------------------------------------58-6-5-6-5-3-1--1---------
G----------5----------5-5--4-3-4-3--5-------------------2---------
D----2-4-5------2-45-----------------------------------3---------
A--3----------3-----------------------------------------3---------
E-------------------------------------------------------1---------

Cualquier corrección o comentario escribir a cuarta_d@hotmail.com

Fuente original ATAME [www.atame.org]
Colaborador original: Mariano [cuarta_d@hotmail.com]

Fuente: tusacordes.com