a b c d e f g h i j k l m n o p q r s t u v w x y z 0-9

El Rito

Soda Stereo

			
Soda Stereo - El Rito / Corrección

Intro x 2

   Dm7           G7            Bbm7          F 
--3---3--3---3--3---3--3---3--3---3--3---3--3---3--3---3----
-6-6-6--6-6-6--6-6-6--6-6-6--6-6-6--6-6-6--6-6-6--6-6-6-----
5---5--5---5--5---4--4---4--4---6--6---6--6---5--5---5------
------------------------------------------------------------
------------------------------------------------------------
------------------------------------------------------------


Break 

Eb
Soy un profanador
Estoy desafiando al tiempo...
F
Ya ves, mi transgresión
Es procurar tenerte
Eb 
El cielo entiende que mi obsesión
Esta llegando a un limite...
F
Y el desierto al menos hoy...
No parece... no parece tan

Coro con base de Intro

Dm7                           G7
Sueles, encontrarme, en cualquier lugar...
Bbm7                       F  
y ya lo sabes nada es casualidad...
Dm7                        G7  
Tu misteriosa forma me lastimara... 
Bbm7                             F   
Pero a cada segundo estaré mas cerca... más, más

Inter1/2
Dm7 - Bb7 - Dm7 - C - C4 - C - C4

Eb
Paralizandome, jamás podré esperarte
F
Y no tengo que esperar... en un altar de sacrificio
Eb
Solo meterme en tu ritual... y descifrar tu enigma
F
Tal vez... no hablar de mas
El silencio no es tiempo perdido...

Coro...

C9 Bb7 x 2 C9 - F - Bb7 El F es sólo de paso...
         Desafiando al rito...
C9 Bb7 x 2 C9 - F - Bb7 
         Destruyendo mitos...

Inter1/2 
Dm7 - Bb7 - Dm7 - C - C4 - C - C4

Solo con base Eb - F Como en las estrofas

Coro

Riff de salida


---------------------------------------------------
---------------------------6-4-3-4-3---------------
-------5------5-5-3-2-3-2------------5-3-5---------
-2-3-5---2-3-5------------3------------------------
3-------3------------------------------------------
---------------------------------------------------

Canción termina en C

Acordes

  Dm7        G7                       Bbm7
IIII**     ------  Cejillo 3er Esp.   ------ Cejillo 6to traste
III*II     III*II                     IIIIII
IIIIII     I*IIII                     I*IIII                     
IIIIII     IIIIII                     IIIIII

 F
------ Cejillo 5to traste
IIII*I
II*III
I*IIII


Eb                           
------ Cejillo 3er traste    
IIII*I
II*III
I*IIII

Bb7                         C                         C4
------ Cejillo 6to traste   ------ Cejillo 3r traste  ------ Cejillo 3er traste
III*II                      IIIIII                    IIIIII
IIIIII                      II***I                    II**II
I*IIII                      IIIIII                    IIII*I

C9
IIIIII
II*III
I*I***
IIIIII

Fuente original ATAME [www.atame.org]
Colaborador original: Francisco [Jarque]

Fuente: tusacordes.com