a b c d e f g h i j k l m n o p q r s t u v w x y z 0-9

Disco Eterno

Soda Stereo

			
INTRO
G|------------------------------------|------------------------------------|
D|0------3-555-333-------3-555-33---0-|-------3-555-333-------3-555-33---0-|
A|-------------------------------03---|-------------------------------03---|
E|------------------------------------|------------------------------------|

G|------------------------------------|------------------------------------|
D|-------3-555-333-------3-555-33---0-|-------3-555-333-------3-555-33---0-|
A|-------------------------------03---|-------------------------------03---|
E|------------------------------------|------------------------------------|

G|------------------------------------|------------------------------------|
D|-------3-555-333-------3-555-33---0-|-------3-555-333-------3-555-33---0-|
A|-------------------------------03---|-------------------------------03---|
E|------------------------------------|------------------------------------|

G|------------------------------------|------------------------------------|
D|-------3-555-333-------3-555-33---0-|-------3-555-333-------3-555-33---0-|
A|-------------------------------03---|-------------------------------03---|
E|------------------------------------|------------------------------------|

  ME SALI......			       FUERA DE CONTEXTO.....
G|------------------------------------|------------------------------------|
D|0---00-3----33---------5----55----0-|----00-3----33---------5----55----0-|
A|---------------53-3-33---------03---|---------------53-3-33---------03---|
E|------------------------------------|------------------------------------|

  PERSPICAZ............                NO TE HACE PERFECTO......
G|------------------------------------|------------------------------------|
D|----00-3----33---------5----55----0-|----00-3----33---------5----55----0-|
A|---------------53-3-33---------03---|---------------53-3-33---------03---|
E|------------------------------------|------------------------------------|

  PONER UN DISCO ETERNO......          MOVERME TORNO AL SOL.........
G|------------------------------------|------------------------------------|
D|----00-3----33---------5----55----0-|----00-3----33---------5----55----0-|
A|---------------53-3-33---------03---|---------------53-3-33---------03---|
E|------------------------------------|------------------------------------|

  UN ESPIRITU............              A VECES SEGURO OTRAS VECES INCIERTO
G|------------------------------------|------------------------------------|
D|------11----------------------------|------11----------------------------|
A|12-12----12---------3---------------|12-12----12---------3---------------|
E|------------------------------------|------------------------------------|

  QUIERO DESCUBRIR........             PORKE ESE DESEO CRECE........
G|------------------------------------|------------------------------------|
D|------11----------------------------|------11----------------------------|
A|12-12----12---------3---------------|12-12----12---------3---------------|
E|------------------------------------|------------------------------------|

G|------------------------------------|------------------------------------|
D|0------3-555-333-------3-555-33---0-|-------3-555-333-------3-555-33---0-|
A|-------------------------------03---|-------------------------------03---|
E|------------------------------------|------------------------------------|

  ENTRE LOS DOS......                  PASA UN MERIDIANO.....
G|------------------------------------|------------------------------------|
D|0---00-3----33---------5----55----0-|----00-3----33---------5----55----0-|
A|---------------53-3-33---------03---|---------------53-3-33---------03---|
E|------------------------------------|------------------------------------|

  LATITUD......                        VIDAS PARALELAS.............
G|------------------------------------|------------------------------------|
D|----00-3----33---------5----55----0-|----00-3----33---------5----55----0-|
A|---------------53-3-33---------03---|---------------53-3-33---------03---|
E|------------------------------------|------------------------------------|

  ABRIR EL SUEÑO STEREO........        CREAR LA DIMENSION............
G|------------------------------------|------------------------------------|
D|----00-3----33---------5----55----0-|----00-3----33---------5----55----0-|
A|---------------53-3-33---------03---|---------------53-3-33---------03---|
E|------------------------------------|------------------------------------|

  SIN DISIMULAR..........              ME VOY DESNUDANDO CON CADA SONIDO..
G|------------------------------------|------------------------------------|
D|------11----------------------------|------11----------------------------|
A|12-12----12---------3---------------|12-12----12---------3---------------|
E|------------------------------------|------------------------------------|

  ALTA FIDELIDAD.........              CUANDO ESTE DESEO CRECE........
G|------------------------------------|------------------------------------|
D|------11----------------------------|------11----------------------------|
A|12-12----12---------3---------------|12-12----12---------3--------5------|
E|------------------------------------|------------------------------------|

G|------------------------------------|------------------------------------|
D|0------3-555-333-------3-555-33---0-|-------3-555-333-------3-555-33---0-|
A|-------------------------------03---|-------------------------------03---|
E|------------------------------------|------------------------------------|

G|------------------------------------|------------------------------------|
D|-------3-555-333-------3-555-33---0-|-------3-555-333-------3-555-33---0-|
A|-------------------------------03---|-------------------------------03---|
E|------------------------------------|------------------------------------|

G|------------------------------------|------------------------------------|
D|-------3-555-333-------3-555-33---0-|-------3-555-333-------3-555-33---0-|
A|-------------------------------03---|-------------------------------03---|
E|------------------------------------|------------------------------------|

  UN ESPIRITU.........                 A VECES SEGURO OTRAS VECES INCIERTO
G|------------------------------------|------------------------------------|
D|------11----------------------------|------11----------------------------|
A|12-12----12---------3---------------|12-12----12---------3---------------|
E|------------------------------------|------------------------------------|

  VENGO A DESCUBRIR........            PORQUE ESTE DESEO CRECE..........
G|------------------------------------|------------------------------------|
D|------11----------------------------|------11---------------------------0|
A|12-12----12---------3---------------|12-12----12---------3---------5-----|
E|------------------------------------|------------------------------------|

G|------------------------------------|------------------------------------|
D|0------3-555-333-------3-555-33---0-|-------3-555-333-------3-555-33---0-|
A|-------------------------------03---|-------------------------------03---|
E|------------------------------------|------------------------------------|

G|------------------------------------|------------------------------------|
D|-------3-555-333-------3-555-33---0-|-------3-555-333-------3-555-33---0-|
A|-------------------------------03---|-------------------------------03---|
E|------------------------------------|------------------------------------|

G|------------------------------------|------------------------------------|
D|-------3-555-333-------3-555-33---0-|-------3-555-333-------3-555-33---0-|
A|-------------------------------03---|-------------------------------03---|
E|------------------------------------|------------------------------------|

G|------------------------------------|------------------------------------|
D|-------3-555-333-------3-555-33---0-|-------3-555-333-------3-555-33---0-|
A|-------------------------------03---|-------------------------------03---|
E|------------------------------------|------------------------------------|

G|------------------------------------|------------------------------------|
D|0------3-555-333-------3-555-33---0-|-------3-555-333-------3-555-33---0-|
A|-------------------------------03---|-------------------------------03---|
E|------------------------------------|------------------------------------|

G|------------------------------------|------------------------------------|
D|-------3-555-333-------3-555-33---0-|-------3-555-333-------3-555-33---0-|
A|-------------------------------03---|-------------------------------03---|
E|------------------------------------|------------------------------------|

G|------------------------------------|------------------------------------|
D|-------3-555-333-------3-555-33---0-|-------3-555-333-------3-555-33---0-|
A|-------------------------------03---|-------------------------------03---|
E|------------------------------------|------------------------------------|

G|------------------------------------|------------------------------------|
D|-------3-555-333-------3-555-33---0-|-------3-555-333-------3-555-33---0-|
A|-------------------------------03---|-------------------------------03---|
E|------------------------------------|------------------------------------|

Fuente original ATAME [www.atame.org]
Colaborador original: SoNoMaN [djsonoman@yahoo.com.ar]

Fuente: tusacordes.com