a b c d e f g h i j k l m n o p q r s t u v w x y z 0-9

Dietetico

Soda Stereo

			
AQUÍ LES DEJO EL INTRO DE DIETETICO ES POCO PERO AYUDA A FORMA PARTE CASI DE LA CANCION COMPLETA ESPERO 
LES SIRVA PARA COMPLETAR XAO CUALQUIER INQUIETUD ME ESCRIBEN a            ZSEBA-X@HOTMAIL.COM  XAO
ESPERO QUE NO SE ME HAYA IDO NADA 

1--------------------------------------------------------
2--------------------------------------------------------
3-------------------------------------------------------- x2
4---5-5----3----0-----0-----3----5-5--3--0-----3---------
5------------------2-------------------------2-----------
6--------------------------------------------------------


1--------------------------------------------8------4--------
2-----------------------------------------------8------4-----
3------------------------------------------------------------
4---5-5--------3-------0------------------------------------- x2
5-----------------------------2------------------------------
6------------------------------------------------------------

Fuente: tusacordes.com