a b c d e f g h i j k l m n o p q r s t u v w x y z 0-9

De Musica Ligera

Soda Stereo

			
PRIMER SOLO: el ligado va como asterisco *
E----------------------------------------------------------------------------
B----------------------------------------------------------------------------
G----------------------------------------------------------------------------
D------------------------------------------------------------2-4-2-----------
A--2-2-4-4/5-4-5-4-2----------------------2-2-4-4/5-5--------5-4-2-----------
E------------------------5-2-2/7-2-2-0-2-0-----------------------------------

               ESTE ES EL SOLO DE EN MEDIO Y DEL FINAL
E---------------------------------------------------5*7*5---5-7-7/12---------
B---7/12~-10~-12~-10~-12~--10--7~-5~-7~--------7-----------------------------
G----------------------------------------------------------------------------
D----------------------------------------------------------------------------
A----------------------------------------------------------------------------
E----------------------------------------------------------------------------

E---10-9-10-12-10-9----10-9-----10-9---10-12-10--14-12-14-12-14-15-----------
B-----------------------12-------12-------12---------------------------------
G----------------------------------------------------------------------------
D----------------------------------------------------------------------------
A----------------------------------------------------------------------------
E----------------------------------------------------------------------------

E-14-12-12-14-14/15-14-12/10-10-10-9/10-12-10-9--9*10*9----------------------
B-----------------------------------------------------------------------10---
G----------------------------------------------------------------------------
D----------------------------------------------------------------------------
A----------------------------------------------------------------------------
E----------------------------------------------------------------------------

E--9*10*9---9*10*9---9*10*9---9*10*9---9*10*9-------9*10-*9------------------
B-----------12---------10---------12---------10---------12-------------------
G----------------------------------------------------------------------------
D----------------------------------------------------------------------------
A----------------------------------------------------------------------------
E----------------------------------------------------------------------------

E-10*12*10--12*14*12--14*15*14--15*17*15--17/19~~~---------------------------
B----------------------------------------------------------------------------
G----------------------------------------------------------------------------
D----------------------------------------------------------------------------
A----------------------------------------------------------------------------
E----------------------------------------------------------------------------

Fuente original ATAME [www.atame.org]
Colaborador original: ]

Fuente: tusacordes.com