a b c d e f g h i j k l m n o p q r s t u v w x y z 0-9

De Musica Ligera

Soda Stereo

			
Bueno esta es la version de mi solo de Musica Ligera:
Disfrutenla

Mezclen Chorus Medio con un buen Delay
e|---------------------------------------------------5h7p5-----------7/12-----|
B|---7/12~-10~-12~-10~-12~--10--7~-5~-7~--------7----------7-55h7-5-----------|
G|----------------------------------------------------------------------------|
D|----------------------------------------------------------------------------|
A|----------------------------------------------------------------------------|
E|----------------------------------------------------------------------------|

e|---10-9-10-12-10-9--7-9-7-55h7-55h7-55h7---9/10-12-14-12-14-12-14-15--|
B|----------------------------------------------------------------------|
G|----------------------------------------------------------------------|
D|----------------------------------------------------------------------|
A|----------------------------------------------------------------------|
E|----------------------------------------------------------------------|

e|-14-12-12-14-14/15-14-12/10-12-10-9---9h10p9------|
B|------------------------------------12------10v---|
G|--------------------------------------------------|
D|--------------------------------------------------|
A|--------------------------------------------------|
E|--------------------------------------------------|

e|--9h10p9----9h10p9-----9h10p9-----9h10p9----9h10p9-------9h10-9v~-|
B|--------10v--------10v--------10v-------10v--------10v------------|
G|------------------------------------------------------------------|
D|------------------------------------------------------------------|
A|------------------------------------------------------------------|
E|------------------------------------------------------------------|

e|-10-12-10--12-14-12--14h15-14--15h17-15--17/19-19V~~~Tremolo---|
B|-------------------------------------------------------------------|
G|-------------------------------------------------------------------|
D|-------------------------------------------------------------------|
A|-------------------------------------------------------------------|
E|-------------------------------------------------------------------|

Eso es todo, si lo van a utilizar denme credito por favor!
Dudas a Tyrant1@prodigy.net.mx

Viva México!!!

Fuente original ATAME [www.atame.org]
Colaborador original: Omar Salazar Zavala [Tyrant1@prodigy.net.mx]

Fuente: tusacordes.com