a b c d e f g h i j k l m n o p q r s t u v w x y z 0-9

Cuando Pase El Temblor

Soda Stereo

			
Cuando pase el temblor
Z bosio

Intro
G|-4-7-4-0-------------------------------------------------------
D|------------------------------------2-2-22-2-------------------
A|---------0-0-00-0----------------------------------------------
E|------------------3-3-33-3-1-1-11-1----------------------------

Yo, caminare entre las piedras...
G|---------------------------------------------------------------
D|-----------------------2--2----2-------2-----------------------
A|-0-0-00-0--------------------3-----2-3---33-3---1-5-1----------
E|----------3--3--1-11-1------------------------3----------------

G|---------------------------------------------------------------
D|------------------0-0-00-0-3-3---------------------------------
A|-3-3-33-3---1-5-1--------------2-------------------------------
E|----------3----------------------------------------------------

Estoy, sentado en un crater...
G|---------------------------------------------------------------
D|-----------------------2--2----2-------2-----------------------
A|-0-0-00-0--------------------3-----2-3---33-3---1-5-1----------
E|----------3--3--1-11-1------------------------3----------------

G|---------------------------------------------------------------
D|------------------0-0-00-0-3-3---------------------------------
A|-3-3-33-3---1-5-1--------------2-------------------------------
E|----------3----------------------------------------------------

Hay una grieta...
G|---------------------------------------------------------------
D|-2-2-22-2----------2-2-22-2------------------------------------
A|----------2-2-22-2----------2-2-22-2---------------------------
E|---------------------------------------------------------------

G|---------------------------------------------------------------
D|---------------------------------------------------------------
A|-3-3-33-3--3-33-3--3-33-3--3-33-3------------------------------
E|----------------------------------1----------------------------


Se, que te encontrare...
G|---------------------------------------------------------------
D|-----------------------2--2----2-------2-----------------------
A|-0-0-00-0--------------------3-----2-3---33-3---1-5-1----------
E|----------3--3--1-11-1------------------------3----------------


Hay una grieta...
G|---------------------------------------------------------------
D|-2-2-22-2----------2-2-22-2------------------------------------
A|----------2-2-22-2----------2-2-22-2---------------------------
E|---------------------------------------------------------------

G|---------------------------------------------------------------
D|---------------------------------------------------------------
A|-3-3-33-3--3-33-3--3-33-3--3-33-3------------------------------
E|----------------------------------1----------------------------

oh oh oh
G|--------0------------------------------------------------------
D|------2----0-1-1-----------------------------------------------
A|-3-3-3---------------------------------------------------------
E|---------------------------------------------------------------
hasta el final

Fuente: Tusacordes