a b c d e f g h i j k l m n o p q r s t u v w x y z 0-9

Cuando Pase El Temblor

Soda Stereo

			
Ojala les guste mi versión SIN ERRORES para que aprendan a hacer
las cosas bien hechas


Intro
g|--5--7--5----------------------------------------------------
d|-----------7-------------------------------------------------
a|--------------0---------------------------------------------
e|-------------------------------------------------------------

g|-------------------------------------------------------------
d|-------------------------------------------------------------
a|-------------------------------------------------------------
e|--5--5--5-5--5--3--3--3-3--3--1--1--1-1--1--0--0--0-0--0-----

g|-------------------------------------------------------------
d|-------------------------------------------------------------
a|-------------------------------------------------------------
e|--5--5--5-5--5-----3-------3--1--1--1-1--1-------------------
     yo       caminare   entre  las   piedras 


g|-------------------------------------------------------------
d|--------------------------------------------2----------------
a|-----------------------------------------3-------------------
e|------------3--------3-------------------------3-3---3-------
	Hasta   sentir   el   temblor

g|-------------------------------------------------------------
d|-------------2-----------------------------------------------
a|----------3-----3-3---3-----------2--5---2---3--3--3-3—-3----
e|-------3----------------------3------------------------------
             En mis piernas		a veces tengo temor lo sé 


g|-------------------------------------------------------------
d|----------------------------------3-3------------------------
a|-----2--5---2---5--5-5—-5------------------------2-----------
e|--3----------------------------------------------------------









Coro
g|----------------------------------------------------------
d|---2--2--2-2--2-2-2---------------------2--2--2-2--2-2-2--
a|---------------------2--2--2-2--2-2-2---------------------
e|----------------------------------------------------------

g|----------------------------------------------------------
d|----------------------------------------------------------
a|--2--2--2-2--2-----3--------------------------------------
e|-------------------------5--------------------------------
                        
                        

Coda
g|-------------------------------------------------------------
d|-------------------------------------------------------------
a|--3--3--3-3--3----------------3--3--3-3—3------------------
e|----------------3--3---3-3—3---------------------------------


Para los Sodastéricos

Fuente original ATAME [www.atame.org]
Colaborador original: Oscar Beltrán [publimer39@hotmail.com]

Fuente: tusacordes.com