a b c d e f g h i j k l m n o p q r s t u v w x y z 0-9

Cuando Pase El Temblor (unplugged)

Soda Stereo

			
   Armonizado en Do Mayor


   Efectos naturales:

/, slide, tocas nota y deslizas el dedo hacia otra 9/7
   tocas 9 y deslizas hacia 7.

x, mute, la nota se toca sin presionar firmemente la cuerda,
   lo que le da un efecto de sonar "mudo". En esta canción,
   este efecto es primordial para el ritmo, pues cada dos notas
   son tocadas en contraparte por dos rasgueos mudos.

Nota: Los acordes acompañados por un paréntesis tienen un número
      romano, que indica el traste en donde se toca el acorde:
      GIII, se refiere a tocar acorde sol con cejila en traste 3.

      El tab viene acompañado de la letra, indicando en dónde se canta
      exactamente junto con la canción. También incluí el nombre que
      me pareció más apropiado para cada acorde, siendo que todos los
      acordes se tocan con cejillas.




   INTRODUCCIÓN GUITARRA.

   [AmV  GIII  FI  EmVII]X2

     AmV                                    GIII
||  -5-5-X-X-5-5-X-X-5-5-X-X-5-5-X-X-|-3-3-X-X-3-3-X-X-3-3-X-X-3-3-X-X-|
||  -5-5-X-X-5-5-X-X-5-5-X-X-5-5-X-X-|-3-3-X-X-3-3-X-X-3-3-X-X-3-3-X-X-|
||O -5-5-X-X-5-5-X-X-5-5-X-X-5-5-X-X-|-4-4-X-X-4-4-X-X-4-4-X-X-4-4-X-X-|
||O -7-7-X-X-7-7-X-X-7-7-X-X-7-7-X-X-|-5-5-X-X-5-5-X-X-5-5-X-X-5-5-X-X-|
||  -7-7-X-X-7-7-X-X-7-7-X-X-7-7-X-X-|-5-5-X-X-5-5-X-X-5-5-X-X-5-5-X-X-|
||  -5-5-X-X-5-5-X-X-5-5-X-X-5-5-X-X-|-3-3-X-X-3-3-X-X-3-3-X-X-3-3-X-X-|

  F                                        EmVII
|-1-1-X-X-1-1-X-X-1-1-X-X-1-1-X-X-|-7-7-X-X-7-7-X-X-7-7-X-X-7-7-X-X-  ||
|-1-1-X-X-1-1-X-X-1-1-X-X-1-1-X-X-|-8-8-X-X-8-8-X-X-8-8-X-X-8-8-X-X-  ||
|-2-2-X-X-2-2-X-X-2-2-X-X-2-2-X-X-|-9-9-X-X-9-9-X-X-9-9-X-X-9-9-X-X- O||
|-3-3-X-X-3-3-X-X-3-3-X-X-3-3-X-X-|-9-9-X-X-9-9-X-X-9-9-X-X-9-9-X-X- O||
|-3-3-X-X-3-3-X-X-3-3-X-X-3-3-X-X-|-7-7-X-X-7-7-X-X-7-7-X-X-7-7-X-X-  ||
|-1-1-X-X-1-1-X-X-1-1-X-X-1-1-X-X-|-7-7-X-X-7-7-X-X-7-7-X-X-7-7-X-X-  ||x2


   VERSO 1.

   AmV                                   GIII
||-5-5-X-X-5-5-X-X-5-5-X-X-5-5-X-X-|-3-3-X-X-3-3-X-X-3-3-X-X-3-3-X-X-|
||-5-5-X-X-5-5-X-X-5-5-X-X-5-5-X-X-|-3-3-X-X-3-3-X-X-3-3-X-X-3-3-X-X-|
||-5-5-X-X-5-5-X-X-5-5-X-X-5-5-X-X-|-4-4-X-X-4-4-X-X-4-4-X-X-4-4-X-X-|
||-7-7-X-X-7-7-X-X-7-7-X-X-7-7-X-X-|-5-5-X-X-5-5-X-X-5-5-X-X-5-5-X-X-|
||-7-7-X-X-7-7-X-X-7-7-X-X-7-7-X-X-|-5-5-X-X-5-5-X-X-5-5-X-X-5-5-X-X-|
||-5-5-X-X-5-5-X-X-5-5-X-X-5-5-X-X-|-3-3-X-X-3-3-X-X-3-3-X-X-3-3-X-X-|
   Yo,                               C A m i n a r é  e n t r e  l a s

  F                                 EmVII
|-1-1-X-X-1-1-X-X-1-1-X-X-1-1-X-X-|-7-7-X-X-7-7-X-X-7-7-X-X-7-7-X-X-|
|-1-1-X-X-1-1-X-X-1-1-X-X-1-1-X-X-|-8-8-X-X-8-8-X-X-8-8-X-X-8-8-X-X-|
|-2-2-X-X-2-2-X-X-2-2-X-X-2-2-X-X-|-9-9-X-X-9-9-X-X-9-9-X-X-9-9-X-X-|
|-3-3-X-X-3-3-X-X-3-3-X-X-3-3-X-X-|-9-9-X-X-9-9-X-X-9-9-X-X-9-9-X-X-|
|-3-3-X-X-3-3-X-X-3-3-X-X-3-3-X-X-|-7-7-X-X-7-7-X-X-7-7-X-X-7-7-X-X-|
|-1-1-X-X-1-1-X-X-1-1-X-X-1-1-X-X-|-7-7-X-X-7-7-X-X-7-7-X-X-7-7-X-X-|
  p i E D r a s                     h a s t a    s e n t i r     e l

   CVIII
|--8--8-X-X-8--8--X-X-8--8--X-X-8--8--X-X-|
|--8--8-X-X-8--8--X-X-8--8--X-X-8--8--X-X-|
|--9--9-X-X-9--9--X-X-9--9--X-X-9--9--X-X-|
|-10-10-X-X-10-10-X-X-10-10-X-X-10-10-X-X-|
|-10-10-X-X-10-10-X-X-10-10-X-X-10-10-X-X-|
|--8--8-X-X-8--8--X-X-8--8--X-X-8--8--X-X-|
   t e m b l o r

 Am  GIII             F                      CVIII
 Yo  caminaré entre las piedras hasta sentir el temblor

  Cmaj7/F
|-8--8--X-X-8--8--X-X-8--8--X-X-8--8--X-X-|
|-8--8--X-X-8--8--X-X-8--8--X-X-8--8--X-X-|
|-10-10-X-X-10-10-X-X-10-10-X-X-10-10-X-X-|
|-10-10-X-X-10-10-X-X-10-10-X-X-10-10-X-X-|
|-8--8--X-X-8--8--X-X-8--8--X-X-8--8--X-X-|
|-8--8--X-X-8--8--X-X-8--8--X-X-8--8--X-X-|
                            e n  m i s

   CVIII
|--8--8-X-X-8--8--X-X-8--8--X-X-8--8--X-X-|
|--8--8-X-X-8--8--X-X-8--8--X-X-8--8--X-X-|
|--9--9-X-X-9--9--X-X-9--9--X-X-9--9--X-X-|
|-10-10-X-X-10-10-X-X-10-10-X-X-10-10-X-X-|
|-10-10-X-X-10-10-X-X-10-10-X-X-10-10-X-X-|
|--8--8-X-X-8--8--X-X-8--8--X-X-8--8--X-X-|
   p i e r n a s.

 Cmaj7/F  CVIII
    En mis piernas

  Gm
|-3-3-X-X-3-3-X-X-3-3-X-X-3-3-X-X-|
|-3-3-X-X-3-3-X-X-3-3-X-X-3-3-X-X-|
|-3-3-X-X-3-3-X-X-3-3-X-X-3-3-X-X-|
|-5-5-X-X-5-5-X-X-5-5-X-X-5-5-X-X-|
|-5-5-X-X-5-5-X-X-5-5-X-X-5-5-X-X-|
|-3-3-X-X-3-3-X-X-3-3-X-X-3-3-X-X-|
            A   v E C E s   t e n-

  C7III                           Gm
|-3-3-X-X-3-3-X-X-3-3-X-X-3-3-X-X-|-3-3-X-X-3-3-X-X-3-3-X-X-3-3-X-X-|
|-5-5-X-X-5-5-X-X-5-5-X-X-5-5-X-X-|-3-3-X-X-3-3-X-X-3-3-X-X-3-3-X-X-|
|-3-3-X-X-3-3-X-X-3-3-X-X-3-3-X-X-|-3-3-X-X-3-3-X-X-3-3-X-X-3-3-X-X-|
|-5-5-X-X-5-5-X-X-5-5-X-X-5-5-X-X-|-5-5-X-X-5-5-X-X-5-5-X-X-5-5-X-X-|
|-3-3-X-X-3-3-X-X-3-3-X-X-3-3-X-X-|-5-5-X-X-5-5-X-X-5-5-X-X-5-5-X-X-|
|-3-3-X-X-3-3-X-X-3-3-X-X-3-3-X-X-|-3-3-X-X-3-3-X-X-3-3-X-X-3-3-X-X-|
  G o   t E m o r ,                 l o   s é,  a   v e c e s  v e r-

  D7V                             FV             B7
|-5-5-X-X-5-5-X-X-5-5-X-X-5-5-X-X-|-5-5-X-X-5-5-X-X-2-2-X-X-2-2-X-X-|
|-7-7-X-X-7-7-X-X-7-7-X-X-7-7-X-X-|-6-6-X-X-6-6-X-X-4-4-X-X-4-4-X-X-|
|-5-5-X-X-5-5-X-X-5-5-X-X-5-5-X-X-|-5-5-X-X-5-5-X-X-2-2-X-X-2-2-X-X-|
|-7-7-X-X-7-7-X-X-7-7-X-X-7-7-X-X-|-7-7-X-X-7-7-X-X-4-4-X-X-4-4-X-X-|
|-5-5-X-X-5-5-X-X-5-5-X-X-5-5-X-X-|-8-8-X-X-8-8-X-X-2-2-X-X-2-2-X-X-|
|-5-5-X-X-5-5-X-X-5-5-X-X-5-5-X-X-|-5-5-X-X-5-5-X-X-2-2-X-X-2-2-X-X-|
  G ü E n z a.                      Ooooooooooooh,   ooooooooooooooh.

|-2-2-X-X-2-2-X-X-2-2-X-X-2-2-X-X-|-2-2-X-X-2-2-X-X-||
|-5-5-X-X-5-5-X-X-5-5-X-X-5-5-X-X-|-5-5-X-X-5-5-X-X-||
|-4-4-X-X-4-4-X-X-4-4-X-X-4-4-X-X-|-4-4-X-X-4-4-X-X-||
|-4-4-X-X-4-4-X-X-4-4-X-X-4-4-X-X-|-4-4-X-X-4-4-X-X-||
|-2-2-X-X-2-2-X-X-2-2-X-X-2-2-X-X-|-2-2-X-X-2-2-X-X-||
|-2-2-X-X-2-2-X-X-2-2-X-X-2-2-X-X-|-2-2-X-X-2-2-X-X-||
                                                E s-
 Gm          C7III     Gm
 A veces tengo temor, lo sé
            D7V   FV            B7
 A veces vergüenza, oooooooooooooh, oooooooooooooh.


    VERSO 2.

   AmV                                   GIII
||-5-5-X-X-5-5-X-X-5-5-X-X-5-5-X-X-|-3-3-X-X-3-3-X-X-3-3-X-X-3-3-X-X-|
||-5-5-X-X-5-5-X-X-5-5-X-X-5-5-X-X-|-3-3-X-X-3-3-X-X-3-3-X-X-3-3-X-X-|
||-5-5-X-X-5-5-X-X-5-5-X-X-5-5-X-X-|-4-4-X-X-4-4-X-X-4-4-X-X-4-4-X-X-|
||-7-7-X-X-7-7-X-X-7-7-X-X-7-7-X-X-|-5-5-X-X-5-5-X-X-5-5-X-X-5-5-X-X-|
||-7-7-X-X-7-7-X-X-7-7-X-X-7-7-X-X-|-5-5-X-X-5-5-X-X-5-5-X-X-5-5-X-X-|
||-5-5-X-X-5-5-X-X-5-5-X-X-5-5-X-X-|-3-3-X-X-3-3-X-X-3-3-X-X-3-3-X-X-|
  -t o y                             sentado   en  un  cráter    de-

  F                                 EmVII
|-1-1-X-X-1-1-X-X-1-1-X-X-1-1-X-X-|-7-7-X-X-7-7-X-X-7-7-X-X-7-7-X-X-|
|-1-1-X-X-1-1-X-X-1-1-X-X-1-1-X-X-|-8-8-X-X-8-8-X-X-8-8-X-X-8-8-X-X-|
|-2-2-X-X-2-2-X-X-2-2-X-X-2-2-X-X-|-9-9-X-X-9-9-X-X-9-9-X-X-9-9-X-X-|
|-3-3-X-X-3-3-X-X-3-3-X-X-3-3-X-X-|-9-9-X-X-9-9-X-X-9-9-X-X-9-9-X-X-|
|-3-3-X-X-3-3-X-X-3-3-X-X-3-3-X-X-|-7-7-X-X-7-7-X-X-7-7-X-X-7-7-X-X-|
|-1-1-X-X-1-1-X-X-1-1-X-X-1-1-X-X-|-7-7-X-X-7-7-X-X-7-7-X-X-7-7-X-X-|
  s i e r t o,                      sigo   aguardando   e l   tem-

   CVIII
|--8--8-X-X-8--8--X-X-8--8--X-X-8--8--X-X-|-------------------------|
|--8--8-X-X-8--8--X-X-8--8--X-X-8--8--X-X-|-------------------------|
|--9--9-X-X-9--9--X-X-9--9--X-X-9--9--X-X-|-------------------------|
|-10-10-X-X-10-10-X-X-10-10-X-X-10-10-X-X-|-------------------------|
|-10-10-X-X-10-10-X-X-10-10-X-X-10-10-X-X-|-------------------------|
|--8--8-X-X-8--8--X-X-8--8--X-X-8--8--X-X-|-------------------------|
  -b l o r,                                   e n   t u   c u e r-

   CVIII
|--8--8-X-X-8--8--X-X-8--8--X-X-8--8--X-X-|
|--8--8-X-X-8--8--X-X-8--8--X-X-8--8--X-X-|
|--9--9-X-X-9--9--X-X-9--9--X-X-9--9--X-X-|
|-10-10-X-X-10-10-X-X-10-10-X-X-10-10-X-X-|
|-10-10-X-X-10-10-X-X-10-10-X-X-10-10-X-X-|
|--8--8-X-X-8--8--X-X-8--8--X-X-8--8--X-X-|
  -po.

 Am    GIII                  F
 Estoy sentado en un cráter desierto
 EmVII              CVIIISin acorde           CVIII
 Sigo esperando el temblor,             en tu cuerpo

  Gm
|-3-3-X-X-3-3-X-X-3-3-X-X-3-3-X-X-|
|-3-3-X-X-3-3-X-X-3-3-X-X-3-3-X-X-|
|-3-3-X-X-3-3-X-X-3-3-X-X-3-3-X-X-|
|-5-5-X-X-5-5-X-X-5-5-X-X-5-5-X-X-|
|-5-5-X-X-5-5-X-X-5-5-X-X-5-5-X-X-|
|-3-3-X-X-3-3-X-X-3-3-X-X-3-3-X-X-|
                  N A D i E   m e

  C7III                           Gm
|-3-3-X-X-3-3-X-X-3-3-X-X-3-3-X-X-|-3-3-X-X-3-3-X-X-3-3-X-X-3-3-X-X-|
|-5-5-X-X-5-5-X-X-5-5-X-X-5-5-X-X-|-3-3-X-X-3-3-X-X-3-3-X-X-3-3-X-X-|
|-3-3-X-X-3-3-X-X-3-3-X-X-3-3-X-X-|-3-3-X-X-3-3-X-X-3-3-X-X-3-3-X-X-|
|-5-5-X-X-5-5-X-X-5-5-X-X-5-5-X-X-|-5-5-X-X-5-5-X-X-5-5-X-X-5-5-X-X-|
|-3-3-X-X-3-3-X-X-3-3-X-X-3-3-X-X-|-5-5-X-X-5-5-X-X-5-5-X-X-5-5-X-X-|
|-3-3-X-X-3-3-X-X-3-3-X-X-3-3-X-X-|-3-3-X-X-3-3-X-X-3-3-X-X-3-3-X-X-|
  v i ó  p a r t i r,         l o   s é,          n a d i e  m e  e s-

  D7V                             FV             B7
|-5-5-X-X-5-5-X-X-5-5-X-X-5-5-X-X-|-5-5-X-X-5-5-X-X-2-2-X-X-2-2-X-X-|
|-7-7-X-X-7-7-X-X-7-7-X-X-7-7-X-X-|-6-6-X-X-6-6-X-X-4-4-X-X-4-4-X-X-|
|-5-5-X-X-5-5-X-X-5-5-X-X-5-5-X-X-|-5-5-X-X-5-5-X-X-2-2-X-X-2-2-X-X-|
|-7-7-X-X-7-7-X-X-7-7-X-X-7-7-X-X-|-7-7-X-X-7-7-X-X-4-4-X-X-4-4-X-X-|
|-5-5-X-X-5-5-X-X-5-5-X-X-5-5-X-X-|-8-8-X-X-8-8-X-X-2-2-X-X-2-2-X-X-|
|-5-5-X-X-5-5-X-X-5-5-X-X-5-5-X-X-|-5-5-X-X-5-5-X-X-2-2-X-X-2-2-X-X-|
 -p E r A.                          Ooooooooooooh,   ooooooooooooooh.

 Gm        C7VIII       Gm
  Nadie me vió partir, lo sé
            D7V FV            B7
 Nadie me espera, oooooooooooooh, oooooooooooooh.

|-2-2-X-X-2-2-X-X-2-2-X-X-2-2-X-X-|-2-2-X-X-2-2-X-X-||
|-5-5-X-X-5-5-X-X-5-5-X-X-5-5-X-X-|-5-5-X-X-5-5-X-X-||
|-4-4-X-X-4-4-X-X-4-4-X-X-4-4-X-X-|-4-4-X-X-4-4-X-X-||
|-4-4-X-X-4-4-X-X-4-4-X-X-4-4-X-X-|-4-4-X-X-4-4-X-X-||
|-2-2-X-X-2-2-X-X-2-2-X-X-2-2-X-X-|-2-2-X-X-2-2-X-X-||
|-2-2-X-X-2-2-X-X-2-2-X-X-2-2-X-X-|-2-2-X-X-2-2-X-X-||


    CORO 1.

   Esus2/Eb        C#5/G                 Dmadd9          Dm6
||-7-7-X-X-7-7-X-X-10-10-X-X-10-10-X-X-|-5-5-X-X-5-5-X-X-8-8-X-X-8-8-X-X-|
||-8-8-X-X-8-8-X-X-10-10-X-X-10-10-X-X-|-7-7-X-X-7-7-X-X-7-7-X-X-7-7-X-X-|
||-9-9-X-X-9-9-X-X--9--9-X-X--9--9-X-X-|-8-8-X-X-8-8-X-X-8-8-X-X-8-8-X-X-|
||-------------------------------------|---------------------------------|
||-------------------------------------|---------------------------------|
||-------------------------------------|---------------------------------|
   H a y     u n a    g r i e t a                      e n  m i  c o r am

  Esus2/Eb        C#5/G                 Dmadd9          Dm6
|-7-7-X-X-7-7-X-X-10-10-X-X-10-10-X-X-|-5-5-X-X-5-5-X-X-8-8-X-X-8-8-X-X-|
|-8-8-X-X-8-8-X-X-10-10-X-X-10-10-X-X-|-7-7-X-X-7-7-X-X-7-7-X-X-7-7-X-X-|
|-9-9-X-X-9-9-X-X--9--9-X-X--9--9-X-X-|-8-8-X-X-8-8-X-X-8-8-X-X-8-8-X-X-|
|-------------------------------------|---------------------------------|
|-------------------------------------|---------------------------------|
|-------------------------------------|---------------------------------|
 -z ó n.         U n  p l a n e     t a        c o n  d e s i l u s i ó n

  Cmaj7/A       Bm/A           Cmaj7/A        Bm/A           Cmaj13/F
|-7-----------|-7------------|-7------------|-7------------|-0-----------||
|-5-----------|-7------------|-5------------|-7------------|-0-----------||
|-5-----------|-7------------|-5------------|-7------------|-2-----------||
|-5-----------|-7------------|-5------------|-7---------7/-|-3-----------||
|-0-----------|--------------|-0------------|--------------|-3-----------||
|-------------|--------------|--------------|--------------|-1-----------||

 Esus2/Eb  C#5/G  Dmadd9  Dm6
 Hay una   grieta,        en mi corazón
 Esus2/Eb  C#5/G  Dmadd9  Dm6        Cmaj7/A  Bm/A  Cmaj7/A  Bm/A Cmaj13/F
     Un planeta,          con desilusión


   VERSO 3.

   AmV                                   GIII
||-5-5-X-X-5-5-X-X-5-5-X-X-5-5-X-X-|-3-3-X-X-3-3-X-X-3-3-X-X-3-3-X-X-|
||-5-5-X-X-5-5-X-X-5-5-X-X-5-5-X-X-|-3-3-X-X-3-3-X-X-3-3-X-X-3-3-X-X-|
||-5-5-X-X-5-5-X-X-5-5-X-X-5-5-X-X-|-4-4-X-X-4-4-X-X-4-4-X-X-4-4-X-X-|
||-7-7-X-X-7-7-X-X-7-7-X-X-7-7-X-X-|-5-5-X-X-5-5-X-X-5-5-X-X-5-5-X-X-|
||-7-7-X-X-7-7-X-X-7-7-X-X-7-7-X-X-|-5-5-X-X-5-5-X-X-5-5-X-X-5-5-X-X-|
||-5-5-X-X-5-5-X-X-5-5-X-X-5-5-X-X-|-3-3-X-X-3-3-X-X-3-3-X-X-3-3-X-X-|
   S é,                              que   te   encontraré   en   esas

  F                                 EmVII
|-1-1-X-X-1-1-X-X-1-1-X-X-1-1-X-X-|-7-7-X-X-7-7-X-X-7-7-X-X-7-7-X-X-|
|-1-1-X-X-1-1-X-X-1-1-X-X-1-1-X-X-|-8-8-X-X-8-8-X-X-8-8-X-X-8-8-X-X-|
|-2-2-X-X-2-2-X-X-2-2-X-X-2-2-X-X-|-9-9-X-X-9-9-X-X-9-9-X-X-9-9-X-X-|
|-3-3-X-X-3-3-X-X-3-3-X-X-3-3-X-X-|-9-9-X-X-9-9-X-X-9-9-X-X-9-9-X-X-|
|-3-3-X-X-3-3-X-X-3-3-X-X-3-3-X-X-|-7-7-X-X-7-7-X-X-7-7-X-X-7-7-X-X-|
|-1-1-X-X-1-1-X-X-1-1-X-X-1-1-X-X-|-7-7-X-X-7-7-X-X-7-7-X-X-7-7-X-X-|
  r u i n a s,                      y a n o t e n d r e m o s que ha-

   CVIII
|--8--8-X-X-8--8--X-X-8--8--X-X-8--8--X-X-|
|--8--8-X-X-8--8--X-X-8--8--X-X-8--8--X-X-|
|--9--9-X-X-9--9--X-X-9--9--X-X-9--9--X-X-|
|-10-10-X-X-10-10-X-X-10-10-X-X-10-10-X-X-|
|-10-10-X-X-10-10-X-X-10-10-X-X-10-10-X-X-|
|--8--8-X-X-8--8--X-X-8--8--X-X-8--8--X-X-|
  -blar...

  Cmaj7/F
|-8--8--X-X-8--8--X-X-8--8--X-X-8--8--X-X-|
|-8--8--X-X-8--8--X-X-8--8--X-X-8--8--X-X-|
|-10-10-X-X-10-10-X-X-10-10-X-X-10-10-X-X-|
|-10-10-X-X-10-10-X-X-10-10-X-X-10-10-X-X-|
|-8--8--X-X-8--8--X-X-8--8--X-X-8--8--X-X-|
|-8--8--X-X-8--8--X-X-8--8--X-X-8--8--X-X-|

   CVIII
|--8--8-X-X-8--8--X-X-8--8--X-X-8--8--X-X-|
|--8--8-X-X-8--8--X-X-8--8--X-X-8--8--X-X-|
|--9--9-X-X-9--9--X-X-9--9--X-X-9--9--X-X-|
|-10-10-X-X-10-10-X-X-10-10-X-X-10-10-X-X-|
|-10-10-X-X-10-10-X-X-10-10-X-X-10-10-X-X-|
|--8--8-X-X-8--8--X-X-8--8--X-X-8--8--X-X-|

 Am GIII                    F
 Sé que te encontraré en esas ruinas
 Em                    CVIII Cmaj7/F CVIII
 Ya no tendremos que hablar...

  Gm
|-3-3-X-X-3-3-X-X-3-3-X-X-3-3-X-X-|
|-3-3-X-X-3-3-X-X-3-3-X-X-3-3-X-X-|
|-3-3-X-X-3-3-X-X-3-3-X-X-3-3-X-X-|
|-5-5-X-X-5-5-X-X-5-5-X-X-5-5-X-X-|
|-5-5-X-X-5-5-X-X-5-5-X-X-5-5-X-X-|
|-3-3-X-X-3-3-X-X-3-3-X-X-3-3-X-X-|
                  T E     B E s Am

  C7III                           Gm
|-3-3-X-X-3-3-X-X-3-3-X-X-3-3-X-X-|-3-3-X-X-3-3-X-X-3-3-X-X-3-3-X-X-|
|-5-5-X-X-5-5-X-X-5-5-X-X-5-5-X-X-|-3-3-X-X-3-3-X-X-3-3-X-X-3-3-X-X-|
|-3-3-X-X-3-3-X-X-3-3-X-X-3-3-X-X-|-3-3-X-X-3-3-X-X-3-3-X-X-3-3-X-X-|
|-5-5-X-X-5-5-X-X-5-5-X-X-5-5-X-X-|-5-5-X-X-5-5-X-X-5-5-X-X-5-5-X-X-|
|-3-3-X-X-3-3-X-X-3-3-X-X-3-3-X-X-|-5-5-X-X-5-5-X-X-5-5-X-X-5-5-X-X-|
|-3-3-X-X-3-3-X-X-3-3-X-X-3-3-X-X-|-3-3-X-X-3-3-X-X-3-3-X-X-3-3-X-X-|
 -r é e n  e l  t e m b l o r, lo   sé,             s e r á    u n

  D7V                             FV             B7
|-5-5-X-X-5-5-X-X-5-5-X-X-5-5-X-X-|-5-5-X-X-5-5-X-X-2-2-X-X-2-2-X-X-|
|-7-7-X-X-7-7-X-X-7-7-X-X-7-7-X-X-|-6-6-X-X-6-6-X-X-4-4-X-X-4-4-X-X-|
|-5-5-X-X-5-5-X-X-5-5-X-X-5-5-X-X-|-5-5-X-X-5-5-X-X-2-2-X-X-2-2-X-X-|
|-7-7-X-X-7-7-X-X-7-7-X-X-7-7-X-X-|-7-7-X-X-7-7-X-X-4-4-X-X-4-4-X-X-|
|-5-5-X-X-5-5-X-X-5-5-X-X-5-5-X-X-|-8-8-X-X-8-8-X-X-2-2-X-X-2-2-X-X-|
|-5-5-X-X-5-5-X-X-5-5-X-X-5-5-X-X-|-5-5-X-X-5-5-X-X-2-2-X-X-2-2-X-X-|
  B  u  E  n     m o m e n t o.

 Gm        CIII               Gm
    Te besaré en el temblor, lo sé
         D7V         FV B7
 Será un buen momento


    CORO 2.

   Esus2/Eb        C#5/G                 Dmadd9          Dm6
||-7-7-X-X-7-7-X-X-10-10-X-X-10-10-X-X-|-5-5-X-X-5-5-X-X-8-8-X-X-8-8-X-X-|
||-8-8-X-X-8-8-X-X-10-10-X-X-10-10-X-X-|-7-7-X-X-7-7-X-X-7-7-X-X-7-7-X-X-|
||-9-9-X-X-9-9-X-X--9--9-X-X--9--9-X-X-|-8-8-X-X-8-8-X-X-8-8-X-X-8-8-X-X-|
||-------------------------------------|---------------------------------|
||-------------------------------------|---------------------------------|
||-------------------------------------|---------------------------------|

   Esus2/Eb        C#5/G                 Dmadd9          Dm6
||-7-7-X-X-7-7-X-X-10-10-X-X-10-10-X-X-|-5-5-X-X-5-5-X-X-8-8-X-X-8-8-X-X-|
||-8-8-X-X-8-8-X-X-10-10-X-X-10-10-X-X-|-7-7-X-X-7-7-X-X-7-7-X-X-7-7-X-X-|
||-9-9-X-X-9-9-X-X--9--9-X-X--9--9-X-X-|-8-8-X-X-8-8-X-X-8-8-X-X-8-8-X-X-|
||-------------------------------------|---------------------------------|
||-------------------------------------|---------------------------------|
||-------------------------------------|---------------------------------|

  Cmaj7/A        Bm/A           Cmaj7/A        Bm/A          Cmaj13/F
     (wah-wah on)                                             (wah-wah off)
                                delay on                      delay off
|-7------10/12-|-7------------|-7------10/12-|-7-----------|-0-----------||
|-5------------|-7------------|-5------------|-7-----------|-0-----------||
|-5------------|-7------------|-5------------|-7-----------|-2-----------||
|-5------------|-7------------|-5------------|-7--------7/-|-3-----------||
|-0------------|--------------|-0------------|-------------|-3-----------||
|--------------|--------------|--------------|-------------|-1-----------||
                            Con desilusión...

 Esus2/Eb  C#5/G  Dmadd9  Dm6

 Esus2/Eb  C#5/G  Dmadd9  Dm6 Cmaj7/A  Bm/A  Cmaj7/A  Bm/A  Cmaj13/F
                                            Con desilusión...


    PUENTE.

   AmV                                   GIII
||-5-5-X-X-5-5-X-X-5-5-X-X-5-5-X-X-|-3-3-X-X-3-3-X-X-3-3-X-X-3-3-X-X-|
||-5-5-X-X-5-5-X-X-5-5-X-X-5-5-X-X-|-3-3-X-X-3-3-X-X-3-3-X-X-3-3-X-X-|
||-5-5-X-X-5-5-X-X-5-5-X-X-5-5-X-X-|-4-4-X-X-4-4-X-X-4-4-X-X-4-4-X-X-|
||-7-7-X-X-7-7-X-X-7-7-X-X-7-7-X-X-|-5-5-X-X-5-5-X-X-5-5-X-X-5-5-X-X-|
||-7-7-X-X-7-7-X-X-7-7-X-X-7-7-X-X-|-5-5-X-X-5-5-X-X-5-5-X-X-5-5-X-X-|
||-5-5-X-X-5-5-X-X-5-5-X-X-5-5-X-X-|-3-3-X-X-3-3-X-X-3-3-X-X-3-3-X-X-|
                                   O h,  o h,  o h,  o h,  o h,  o h,

  F                                 EmVII
|-1-1-X-X-1-1-X-X-1-1-X-X-1-1-X-X-|-7-7-X-X-7-7-X-X-7-7-X-X-7-7-X-X-|
|-1-1-X-X-1-1-X-X-1-1-X-X-1-1-X-X-|-8-8-X-X-8-8-X-X-8-8-X-X-8-8-X-X-|
|-2-2-X-X-2-2-X-X-2-2-X-X-2-2-X-X-|-9-9-X-X-9-9-X-X-9-9-X-X-9-9-X-X-|
|-3-3-X-X-3-3-X-X-3-3-X-X-3-3-X-X-|-9-9-X-X-9-9-X-X-9-9-X-X-9-9-X-X-|
|-3-3-X-X-3-3-X-X-3-3-X-X-3-3-X-X-|-7-7-X-X-7-7-X-X-7-7-X-X-7-7-X-X-|
|-1-1-X-X-1-1-X-X-1-1-X-X-1-1-X-X-|-7-7-X-X-7-7-X-X-7-7-X-X-7-7-X-X-|
  o h,                             o h,  o h,  o h,  o h,  e l t e m-

   CVIII
|--8--8--X-X--8--8--X-X--8--8--X-X--8--8--X-X-||
|--8--8--X-X--8--8--X-X--8--8--X-X--8--8--X-X-||
|--9--9--X-X--9--9--X-X--9--9--X-X--9--9--X-X-||
|-10-10--X-X-10-10--X-X-10-10--X-X-10-10--X-X-||
|-10-10--X-X-10-10--X-X-10-10--X-X-10-10--X-X-||
|--8--8--X-X--8--8--X-X--8--8--X-X--8--8--X-X-||
    -b l o r.                  D e s p i é r...

 Am GIII                  F
    Oh, oh, oh, oh, oh, oh, oh
 EmVII               CVIII
 Oh, oh, oh, oh, el temblor. Despiér-


    CORO FINAL.

     DmX               A#VI
||  -10-10-X-X-10-10-X-X-6-6-X-X-6-6-X-X-|
||  -10-10-X-X-10-10-X-X-6-6-X-X-6-6-X-X-|
||O -10-10-X-X-11-11-X-X-7-7-X-X-7-7-X-X-|
||O -12-12-X-X-12-12-X-X-8-8-X-X-8-8-X-X-|
||  -12-12-X-X-12-12-X-X-8-8-X-X-8-8-X-X-|
||  -10-10-X-X-10-10-X-X-6-6-X-X-6-6-X-X-|
    -tame     cuando     p a s e e l tem-

   CVIII
|--8--8--X-X--8--8--X-X--8--8--X-X--8--8--X-X- ||
|--8--8--X-X--8--8--X-X--8--8--X-X--8--8--X-X- ||
|--9--9--X-X--9--9--X-X--9--9--X-X--9--9--X-X-O||
|-10-10--X-X-10-10--X-X-10-10--X-X-10-10--X-X-O||
|-10-10--X-X-10-10--X-X-10-10--X-X-10-10--X-X- ||
|--8--8--X-X--8--8--X-X--8--8--X-X--8--8--X-X- ||X2
  -b l o r.                    D e s p i é r-

     DmX               A#VI
||  -10-10-X-X-10-10-X-X-6-6-X-X-6-6-X-X-|
||  -10-10-X-X-10-10-X-X-6-6-X-X-6-6-X-X-|
||O -10-10-X-X-11-11-X-X-7-7-X-X-7-7-X-X-|
||O -12-12-X-X-12-12-X-X-8-8-X-X-8-8-X-X-|
||  -12-12-X-X-12-12-X-X-8-8-X-X-8-8-X-X-|
||  -10-10-X-X-10-10-X-X-6-6-X-X-6-6-X-X-|
       -t a a a a a a a a a a a m e

   CVIII
|--8--8--X-X--8--8--X-X--8--8--X-X--8--8--X-X-  ||
|--8--8--X-X--8--8--X-X--8--8--X-X--8--8--X-X-  ||
|--9--9--X-X--9--9--X-X--9--9--X-X--9--9--X-X- O||
|-10-10--X-X-10-10--X-X-10-10--X-X-10-10--X-X- O||
|-10-10--X-X-10-10--X-X-10-10--X-X-10-10--X-X-  ||
|--8--8--X-X--8--8--X-X--8--8--X-X--8--8--X-X-  ||X2
                             d e s p i é r -

  CVIII DmX       A#VI
   Despiértame cuando pase el tem-
  CVIII      DmX      A#VI
 -blor Despiértame cuando pase el tem-
  CVIII      DmX A#VI
 -blor Despiértaaaaaame
 CVIII  DmX A#VI
   Despiértameeeeeeeeeeeeiiii...


    FINAL.

     C/E
    (wah-wah on)
    delay on
||  -8-8-X-X-8-8-X-X-8-8-X-X-8-8-X-X-  ||
||  -8-8-X-X-8-8-X-X-8-8-X-X-8-8-X-X-  ||
||O -9-9-X-X-9-9-X-X-9-9-X-X-9-9-X-X- O||
||O --------------------------------- O||
||  ---------------------------------  ||
||  ---------------------------------  ||X3

|-8-8-X-X-8-8-X-X-8-8-X-10-10//12//10-|
|-8-8-X-X-8-8-X-X-8-8-X-8--8///10//8--|
|-9-9-X-X-9-9-X-X-9-9-X-10-10//12//10-|
|-------------------------------------|
|-------------------------------------|
|-------------------------------------|

||  -8-8-X-X-8-8-X-X-8-8-X-X-8-8-X-X-  ||
||  -8-8-X-X-8-8-X-X-8-8-X-X-8-8-X-X-  ||
||O -9-9-X-X-9-9-X-X-9-9-X-X-9-9-X-X- O||
||O --------------------------------- O||
||  ---------------------------------  ||
||  ---------------------------------  ||X7

|-8-8-X-X-10-10//12//10-X-10-10//12//10-X-|
|-8-8-X-X-8--8///10//8--X-8--8///10//8--X-|
|-9-9-X-X-10-10//12//10-X-10-10//12//10-X-|
|-----------------------------------------|
|-----------------------------------------|
|-----------------------------------------|

||  -8-8-X-X-8-8-X-X-8-8-X-X-8-8-X-X-  ||
||  -8-8-X-X-8-8-X-X-8-8-X-X-8-8-X-X-  ||
||O -9-9-X-X-9-9-X-X-9-9-X-X-9-9-X-X- O||
||O --------------------------------- O||
||  ---------------------------------  ||
||  ---------------------------------  ||X7

|-8-8-X-X-8-8-X-X-8-8-X-10-10-X-X-5-5-X-X-|
|-8-8-X-X-8-8-X-X-8-8-X-10-10-X-X-7-7-X-X-|
|-9-9-X-X-9-9-X-X-9-9-X-9--9--X-X-8-8-X-X-|
|-----------------------------------------|
|-----------------------------------------|
|-----------------------------------------|

    AmV
   (aumenta wah-wah)
   aumenta delay
|| -5-5-X-X-5-5-X-X-5-5-X-X-5-5-X-X- ||
|| -5-5-X-X-5-5-X-X-5-5-X-X-5-5-X-X- ||
||O-5-5-X-X-5-5-X-X-5-5-X-X-5-5-X-X-O||
||O-7-7-X-X-7-7-X-X-7-7-X-X-7-7-X-X-O||
|| -7-7-X-X-7-7-X-X-7-7-X-X-7-7-X-X- ||
|| -5-5-X-X-5-5-X-X-5-5-X-X-5-5-X-X- ||X8

  D7V               AmV
|-5-5-5-5-5-5-5-5-X-X-5-5-X-X-5-5-X-X-5-5-X-X-|
|-7-7-7-7-7-7-7-7-X-X-5-5-X-X-5-5-X-X-5-5-X-X-|
|-5-5-5-5-5-5-5-5-X-X-5-5-X-X-5-5-X-X-5-5-X-X-|
|-7-7-7-7-7-7-7-7-X-X-7-7-X-X-7-7-X-X-7-7-X-X-|
|-5-5-5-5-5-5-5-5-X-X-7-7-X-X-7-7-X-X-7-7-X-X-|
|-5-5-5-5-5-5-5-5-X-X-5-5-X-X-5-5-X-X-5-5-X-X-|


                                              (wah-wah off)
                                              delay off
        AmV                                 reverb off
||  -5-5-X-X-5-5-X-X-5-5-X-X-5-5-X-X-  ||   |-5------------------||
||  -5-5-X-X-5-5-X-X-5-5-X-X-5-5-X-X-  ||   |-5------------------||
||O -5-5-X-X-5-5-X-X-5-5-X-X-5-5-X-X- O||   |-5------------------||
||O -7-7-X-X-7-7-X-X-7-7-X-X-7-7-X-X- O||   |-7------------------||
||  -7-7-X-X-7-7-X-X-7-7-X-X-7-7-X-X-  ||   |--------------------||
||  -5-5-X-X-5-5-X-X-5-5-X-X-5-5-X-X-  ||X5 |--------------------||
           C u A n D o  p a s e  e l  t e m b l o r


      ***Aquí termina la canción, luego Cerati agrega esto:***

||  --------------------------  ||   |-5-----5-7-----7-8-8-8-8--5-5--5-3-|
||  ---5--5--5--5--5--5--5--5-  ||   |-5-5-----5-5-----5-5-5-5--5-5--5-3-|
||O -7--6--5--6--6--7--6--5--- O||   |-5---5---5---5---5-5-5-5--5-5--5-3-|
||O -------------------------- O||   |-7-------6-------5-5-5-5--5-5--6-4-|
||  --------------------------  ||   |-----------------------------------|
||  --------------------------  ||X2 |-----------------------------------|Fuente: Tus acordes