a b c d e f g h i j k l m n o p q r s t u v w x y z 0-9

Claroscuro

Soda Stereo

			
Uno de los de soda que a mi más me gusta, en tabs de bajo para uds.
es muy facil sale de una si lo tocan con el disco... soy músico de Córdoba Argentina
Estoy buscando bajista interesado en armar banda de este estilo, tengo 50 temas propios
listos para tocar...  interesados? escribanme a cuarta_d@hotmail.com


Intro y estrofas:
G---------------------------------------------|
D---------------------------------------------|
A---------2-2-------------2-2-----------------|
E-0-0-3-5-----5-5-0-0-3-5-----5-5------x vs.|


Estribillo:
G-------------------------------------------------------|
D-------------------------------------------------------|
A----------------------------------------------2-2------|
E-3--8--7--5--3--1-vuelve a estrofa-0-0-3-5-----5-5---|

Durante 2do, 3er estribillo y solo:

G----------------------------------------------------------------------|
D----------------------------------------------------------------------|
A----------------------------------------------2-2-------------2-2-----|
E-3-3-3-8-8-8-7-7-7-5-5-5-3-3-3-1-1-1--0-0-3-5-----5-5-0-0-3-5-----5-5-|

Ultimo estribillo y final:

G--------------------------------------------|
D--------------------------------------------|
A--------------------------------------------|
E-3-3-3-8-8-8-7-7-7-5-5-5-3-3-3-1-1-1-5-5-5--|

Muy facil no?
Saludos!!

Fuente original ATAME [www.atame.org]
Colaborador original: Mariano [cuarta_d@hotmail.com]

Fuente: tusacordes.com