a b c d e f g h i j k l m n o p q r s t u v w x y z 0-9

Canción Animal

Soda Stereo

			
Canción Animal:

Intro y verso:
G|-----------------------------|
D|-----------5-----------------|
A|-2---2-2----5----2---2-2----0|
E|--------------------------3--|

           acá empieza el puente:                        *
G|-------------------------------|-G-----A----G----F#m--|----
D|-----------5-------------------|----------------------|----
A|-2---2-2----5---2---2-2----0---|----------------------|2-2-
E|-------------------------3-----|-3-----5----3----2-2--|----
                               cuando el cuerpo no espera…
*
El paso del puente devuelta al verso es bien rápido, se omite el primer Si
Después se repite la misma estructura, y llega el estribillo.
Acá va el paso del puente a una vuelta que es como el verso y
después al estribillo:

G|--------------|----------------------------------------
D|--------------|------5---------------------------------
A|--------------|-2-2---5-2--2-2---0-5-aca pasa al estribillo
E|-3---5---3—2-2|-----------------3----------------------

G|---------------------|  G|---|-------------------------(Una vez más lo
D|---------------------|  D|---|---------5---------------mismo que en
A|-5--5-5---0-0---3-3--|x3A|-5-|-2--2-2---5--2--2-2--0-2-el verso, y va
E|---------------------|  E|---|--------------------3----el solo)

En el solo de Gustavo, el bajo hace lo mismo que durante el estribillo
Después del solo van dos vueltas del verso, el estribillo, y termina
con esta estructura: verso x2, puente x2, verso.

Eso nomás… espero que este bien…Fuente: Tus acordes