a b c d e f g h i j k l m n o p q r s t u v w x y z 0-9

Angel Electrico

Soda Stereo

			
ANTES DE IMPRIMIR: dale copy-paste en algún
programa de texto que tengas, para que se vea
correctamente. Esta es mi primera tablatura y
por suerte es de mi grupo favorito, donde estaba
quien considero el mejor: Gustavo Cerati.
Espero que cualquier error 
o pregunta la notifiquen a  janiolora@hotmail.com


ANGEL ELECTRICO

INTRO:  RE-DO-MI-SOL

A-------3-------------------------------------------------------
E-----1---------------------------------------------------------

SOLO #1:
e----------------4------------------4---------------4------------------|
B----2--4----2----------2--4----2-------2--4----2----------------------|


e---2--4/5--4----2--4/5--4-----2--4/5---4------------------------------|


e---2--4---2--4---2----------------------------------------------------|


F        G 
 Ahí va la tempestad
F                                                        G
 ya parece un paisaje habitual
F                                     G
 un árbol color sodio
F                                                        G
 la caída de un ángel eléctrico

SOLO 1

F          G 
 No tengo estática
F                                                          G
 y no querría lastimarte de nuevo
F                                         G
 volví solo y cansado
F                                                             G
 por la caída de otro ángel eléctrico

SOLO #2
B--3/4---4/5----5--4--3-----

F          G 
 Enredado en cables
F                                                           G
 estoy al filo de la resignación
F                 G                                                F
 debe ser el hábito
F                                                             G
 de esperar que algo     quiebre el unísono

(RE-FAm-DO) o:

D----0--0------2---------------------------------------------------------
A---------------------3--------------------------------------------------

LAm       D 
 Un nuevo acorde
                    Lam                                        D
 te hace mirarme a los ojos
LAm                                             D
 aun tengo al sol
                                LAm            D
 para besar tu sombra
G                        F
 Hoy caí
   G                                    F
al dejarte sola
G                                F
 ya pagué
                                G                                        F
por quebrar la calma

Fuente original ATAME [www.atame.org]
Colaborador original: Janio Lora Féliz [sonido@softhome.net]

Fuente: tusacordes.com