a b c d e f g h i j k l m n o p q r s t u v w x y z 0-9

Angel Electrico

Soda Stereo

			
Versión Unplugged INTRO Y SOLO DE GUITARRA que hace Gustavo Cerati:

al final está la explicación de la tablatura


Gustavo lo toca con distorsión y mucho vibrato.

Intro:

G ---//7vvvvvvvvvvvv----/-----------------------------------------------------------

E -----------------------------------------------------------------------------------
B --------8vv-8--------8vv--------8v-6-8b9r8v-6-8b9r8-6-8vv-6-8b9r8-6-8-------------
G --5h7-5---------5h7-5------5h7-5---------------------------------------------------
D -----------------------------------------------------------------------------------
A -----------------------------------------------------------------------------------
E -----------------------------------------------------------------------------------


E ---------------------------------------------------8------8------8----------------------
B --------8vv-8---------8vv--------8v-6-8b9r8-6-8b10---8b10---8b10---10r8-6---------------
G --5h7-5---------5h7-5------5h7-5-------------------------------------------7vv----------
D ----------------------------------------------------------------------------------------
A ----------------------------------------------------------------------------------------
E ----------------------------------------------------------------------------------------


Solo: 

E --------------------------------------------------------------------------------13-15b17r15--
B --------------------------------------------10------------10-------13b15--13-15--------------
G -------9h10-9-10-9-------------9-10-12v--12----13-12v--12----13-12---------------------------
D --12---------------10------/12---------------------------------------------------------------
A --12------------------12v-------------------------------------------------------------------
E --10-----------------------------------------------------------------------------------------


E --13----12b13v-------------------------------------------------------------------------------
B -----15--------13h15----------9h10p9----9----------------------------------------------------
G ---------------------14V-14---------10---10-9----9------------------10h12-12b14r12-10----10-
D -----------------------------------------------10---10-9-------10h12------------------12----
A ---------------------------------------------------------10h12---------------------------------
E ---------------------------------------------------------------------------------------------


E -----------13--------------------------------------------------------------------------------
B --------13----13----13----13----13-----------------------------------------------------------
G --12b14----------12----12----12----10-12-10vv------------------------------------------------
D ---------------------------------------------------------------------------------------------
A ---------------------------------------------------------------------------------------------
E ---------------------------------------------------------------------------------------------



 h - hammer-on ligado
 v - vibrato 
 / - slide deslizar hacia arriba
  - slide deslizar hacia abajo
 b - bending levantar la cuerda
 r - release bajar la cuerda

Fuente original ATAME [www.atame.org]
Colaborador original: José María Gómez [josemago007@hotmail.com]

Fuente: tusacordes.com