a b c d e f g h i j k l m n o p q r s t u v w x y z 0-9

(en) El Septimo Dia

Soda Stereo

E
D
G
A
			
Intro: Fig.1 [x8]
   E]----------------------------------------- 
   B]-----------------------------------------
   G]-----------------------------------------
   D]-4-4------4---4-4-------4---4-4-------4--
   A]-2-2-0----0---2-2-0-----0---2-2-0-----0--
   E]-------222--0-------222---0-------222----

Fig.2 [x3]

   E]-----------------------
   B]-----------------------
   G]-----------------------
   D]-7-7-7-7--6-6--4-4-4---
   A]-5-5-5-5--4-4--2-2-2---
   E]-----------------------

Fig.3 [x1]

   E]-----------------------
   B]-----------------------
   G]-----------------------
   D]-9--9--9-9--7-6-[4-]--- 
   A]-7--7--7-7--5-4-[2-]---
   E]-----------------------

Terminando la Fig.3 Comienza [Fig.1]

Fig.1
Odio este domingo híbrido de siempre 
Fig.3                 Fig.1
Me da igual, me da igual.
Fig.1
Es un beso en la pantalla del autocine
Fig.3             Fig.1
Sin gozar, sin gozar.

Fig.2
El ojo de la aguja 
Fig.2
La punta de mi lengua
Fig.3         Fig.1
Es igual, es igual.

Fig.1
En el comienzo fue un big-bang y fue caliente
Fig.3          Fig.1
Revolver, revolver...

Fig.1
Sobre los titulos vi caer tu nombre
Fig.3           Fig.1
Reaccioné, reaccioné.

Fig.4 [Coro]
         E     D P.M  G    A    G    D    G    A    E
 E]-x--x--x-x--x-[0]--3----5----3----x----3----5----x
 B]-9--9--9-9--7-[0]--3----5----3----7----3----5----9
 G]-9--9--9-9--7-[0]--4----6----4----7----4----6----9
 D]-9--9--9-9--7-[0]--5----7----5----7----5----7----9
 A]-7--7--7-7--5-[0]--5----7----5----5----5----7----7
 E]-x--x--x-x--x------3----5----3----x----3----5----x

Fig.4       E    D     G         A       G
       Sólo Dios sabe qué es el séptimo dia
            D         G          A       E
       El abismo y la luna en el séptimo dia
                    Fig.1[x4]despues empieza la Fig.5
       No descansaré...

Fig.5

   E]-5---5--4-5-4-5-------- Se repite muchas veces.
   B]-5---5--4-5-4-5--------
   G]-----------------------
   D]-----------------------
   A]-----------------------
   E]-----------------------

Fig.5
En este tiempo anfibio temo perderte
Por volar, por volar.

Fig.3
El reino de los cielos 
Fig.3
La llave del averno

Aqui comienza la Fig.4 pero mas larga
puse los acordes para que no se confundan.
     E     D   G
Es iguial, es igual.
       A       G
En el séptimo dia 
     D          G
El abismo y la luna 
       A       G
En el séptimo dia
      D          G        A       G
Solo Dios sabe qué es el séptimo dia
     D          G          A      E [3 tiempos el E]
El abismo y la luna en el séptimo dia
           Fig.1 [x15]
No descansaré...

Fuente: Tusacordes