a b c d e f g h i j k l m n o p q r s t u v w x y z 0-9

Still Loving You

Scorpions

			
STILL LOVING YOU

Intro:
  Gm       Gm/F     Gm/Eb              ?            D7
|---6--------6--------6------98-6--------6------------5--------------------|
|-----8--------8--------8----------8--------8-------------7-----------------|
|-------7--------7--------7-------------------7-------------5---------------|
|-0------------------------------------8--------8---7---------7-------------|
|----------8--------6------------------6------------5-----------------------|
|---------------------------------------------------------------------------|
 
  Gm       Gm/F     Gm/Eb              ?            D7
|---6--------6--------6------98-6--------6------------5--------------------|
|-----8--------8--------8----------8--------8-------------7-----------------|
|-------7--------7--------7-------------------7-------------5---------------|
|-0------------------------------------8--------8---7-----------------------|
|----------8--------6------------------6------------5-----------------------|
|---------------------------------------------------------------------------|





Verso:
  Gm
|---6-----6-----6--|---6-----6-----6-|---6-----6-----6-|---6-----6------6---|
|-----8-----8------|-----7-----7-----|-----7-----7-----|-----7-----7--------|
|-------7-----7----|-------8-----8---|-------8-----8---|-------8-----8------|
|-0----------------|-0---------------|-0---------------|-0------------------|
|------------------|-----------------|-----------------|--------------------|
|------------------|-----------------|-----------------|--------------------|

 A                                    D                                     
|---9-----9-----9--|----9-----9----9-|---3-----3-----3-|---3-----3-----3----|
|-----8-----8------|------8-----8----|-----2-----2-----|-----2-----2--------|
|-9-----9-----9----|--------9-----9--|-------3-----3---|-------3-----3------| X2
|------------------|-11--------------|-0---------------|-0------------------|
|------------------|-----------------|-----------------|--------------------|
|------------------|-----------------|-----------------|--------------------|

Time, it needs time
To win back your love again
I will be there, I will be there ...
Love, only love
Can bring back your love someday
I will be there, I will be there . . .

Solo 1mientras se toca el intro con la otra guitarra :
|---------------------------------------------------------------------------|
|---------------------------------------------------------------------------|
|------2h3-5-----3p2h3--3p2h3--2------2--3--5--3--5--^^^^^^^^-7-------------|
|-3/5------------------------------5------------------slowly----------------|
|---------------------------------------------------------------------------|
|---------------------------------------------------------------------------|
                                                                           
                                                                               
|----------------------------------------10-13-13^15------------------------|
|-------10h11-13---11p10h11-----10-11-13-------------13^15v13-11-13^^^^15---|
|-10/12----------------------12------------------------------------slowly---|
|---------------------------------------------------------------------------|
|---------------------------------------------------------------------------|
|---------------------------------------------------------------------------|



Verso:

Fight, baby I fight
To win back your love again
I will be there, I will be there . . .
Love, only love
Can break down the walls someday
I will be there, I will be there..


Coro:
|----------|---------------|---------------|--------------|-----------------------------------|
|----------|---------------|---------------|--------------|-----------------------------------|
|---------|-----8---------|-----8---------|-----5--7-----|---------8-------------------------|
|--(12-)--|--5--8--8--3---|--5--8--8--3---|--5--5--7--5--|--3------8--------------3------3---|
|--(12-)--|--5--6--8--3---|--5--6--8--3---|--5--3--5--5--|--3------6--------------3------3---|
|--(10-)--|--3-----6--1---|--3-----6--1---|--3--------3--|--1---------------------1------1---|


If we'd go again all the way from the start
I would try to change things that killed our love
Your pride has built the wall so strong that I can't get through!
Is there really no chance to start once again?

aqui no se toca nada solo se deja sonar la nota final
I'm loving you.

  Gm       Gm/F     Gm/Eb              ?            D7
|---6--------6--------6------98-6--------6------------5--------------------|
|-----8--------8--------8----------8--------8-------------7-----------------|
|-------7--------7--------7-------------------7-------------5---------------|
|-0------------------------------------8--------8---7---------7-------------|
|----------8--------6------------------6------------5-----------------------|
|---------------------------------------------------------------------------|

|----------------------------------------10-13-13^15------------------------|
|-------10h11-13---11p10h11-----10-11-13-------------13^15v13-11-13^^^^15---|
|-10/12----------------------12------------------------------------slowly---|
|---------------------------------------------------------------------------|
|---------------------------------------------------------------------------|
|---------------------------------------------------------------------------|

Verso:
Try, baby try
To trust in my love again
I will be there, I will be there . . .
Love our love
Just shouldn't be thrown away
I will be there, I will be there . . .

Coro:
If we'd go again all the way from the start
I would try to change things that killed our love
Your pride has built the wall so strong that I can't get through!
Is there really no chance to start once again.

|----------|----------------------------------------------------------------------------------|
|----------|----------------------------------------------------------------------------------|
|----------|-----8---------------------------8------------------------------------------------|
|--(12-)---|--5--8--8--3------------------5--8--8-----------3---------------------------------|
|--(12-)-- |--5--6--8--3------------------5--6--8-----------3---------------------------------|
|--(10-)-- |--3-----6--1------------------3-----6-----------1---------------------------------|
If we'd go again all the way from the start
I would try to change things that killed our love

|-------------------------------------------------------------------------------------------|
b|-------------------------------------------------------------------------------------------|
g|---------------5-----------7--5--7-----------8-----------------------------10---------10--|
d|--5--3--5------5-----------7--5--7----5------8-----------------------------10---------10--|
a|--5--3--5------3-----------5--3--5----5------6-----------------------------8----------8---|
E|--3--1--3-----------------------------3----------------------------------------------------|

Yes I hurt your pride and I know what you been through
You should give me a chance, this can't be the end.

|-------------------------------------------------------------------------------------------|
|-------------------------------------------------------------------------------------------|
|----------8--------------------------------------------------------------------------------|
|----5-----8-----8----------------------3---------------------------------------------------|
|----5-----6-----8----------------------3---------------------------------------------------|
|----3-----------6----------------------1---------------------------------------------------|

I'm still loving you . . .
I'm still loving you

Guitarra 2:
|-------18-19--21-23--23--21--19---21---------------------------------------------------------|
|----21---------------------------------------------------------------------------------------|
|---------------------------------------------------------------------------------------------|
|---------------------------------------------------------------------------------------------|
|---------------------------------------------------------------------------------------------|
|---------------------------------------------------------------------------------------------|



                         ~~             ~~                         ~~
|---16-------------14---------16-14-16-14-----23-21-19--13-21-19-23---------------------------|
|----------------------17---------------------------------------------------------------------|
|-------13-15-16------------------------------------------------------------------------------|
|---------------------------------------------------------------------------------------------|
|---------------------------------------------------------------------------------------------|
|---------------------------------------------------------------------------------------------|



                             ~~                                                   
|-----16-18-19-18-16-16----16-------16-18-19-18-16-16-----------------------------------------|
|--19-------------------19-------19-------------------19-16-----------------------------------|
|---------------------------------------------------------------------------------------------|
|---------------------------------------------------------------------------------------------|
|-------------------------------------------------------------Fuente: Tus acordes