a b c d e f g h i j k l m n o p q r s t u v w x y z 0-9

Pa Ti No Estoy

Rosana

Am
G
E
C
F
			
[* =ESTRIBILLO]

1---------------------------------------------------
2---------------------------------------------------
3---------------------------------------------------
4---------------------------------------------------
5-----------0--3--0-----2-----3--0--2---------------
6--0--2--4-----------3-----3--1-----0---------------

1---------------------------------------------------
2---------------------------------------------------
3---------------------------------------------------
4---------------------------------------------------
5-----------0--3--0-----2-----3--2------------------
6--0--2--4-----------3-----3--1--0------------------

Am           G  Am            G
Que te vaya bonito, mis mejores deseos
LA               E                        Am   G
que en la vida recojas lo que siembres de bueno
Am           G  Am             G
Que te vaya bonito, que no te vaya mal
Am                E                      Am   G
y que el tiempo te deje donde tengas que estar
  C                                 G
Quisiste ser universal eclipsando mil sueños
    F                                    E
que Dios te proteja en la celda de tu soledad
             Am       G    F
*Yo me voy a plantar al campo
 E             Am     G   F
*o a la orilla la marea
  E       Am        G     F
*deseo que todo te vaya de vicio
  E          Am   G   F   E
*me voy ahí te quedas
 E        Am      G    F
*Me voy a vivir tranquila
     E     Am      G    F
*sin pausa pero sin prisa
  E        Am     G      F    E        Am
*deseo que todo te vaya de lujo no espero visita
      G    F                 Am 
*así que no vayas que pa tí no estoy
 G           Am     G
*yo pa tí no estoy oh oh
 Am           G     Am               G
Salud, amor y fortuna, me llevo todo en orden
 Am            E   
salud pa ver, amor pa ser
  Am                   E
fortuna pa olvidar tu nombre
 Am             G    Am                G
Me marcho con las lunas, donde el sol no se esconde
Am               E                        Am   
él me abriga el invierno y ella enciende mis noches
G      C                               G
Y tú quisiste ser universal eclipsando mil sueños
     F                                   E
que Dios te proteja en la celda de tu soledad.

ESTRIBILLOFuente: Tus acordes