a b c d e f g h i j k l m n o p q r s t u v w x y z 0-9

Tu

Ricardo Arjona

			
FM7(-5)                                  Dm7       
1-0---------------0----0--------------0------------------0----1-
2-0----------------0---0--------------0---------------0-------2-
3-2-----------------2--2--------------2-----------2-----------2-
4-2-----------------------------------2-----------------------0-
5-2-----------------------------------2-------------------------
6-1--------------------1--------------1-------1-----------------
 Justamente ahora        irrumpes en mi vida  con tu cuerpo exacto

     G7       Csus4  C   E7       E7+9 Am     F            Am
1-----3---------0---------0---------3-----0-----1-------------0-
2-----3---------1---------3--------0------1-----3------------1--
3-----4---------0---------1-------1-------2-----3-----------2---
4-----3---------3---------0------0--------2-----2----------2----
5-----5---------3---------2---------------0-----1---------0-----
6-----3-------------------0---------------0-----1---------------
  y ojos de asesina    tarde    como   siempre    nos llega la fortuna


                   FM7(-5)                                  Dm7        G7   Csus4 C
1-0---------------0----0--------------0------------------0----1---------3-----0-
2-0----------------0---0--------------0---------------0-------2---------3-----1-
3-2-----------------2--2--------------2-----------2-----------2---------4-----0-
4-2-----------------------------------2-----------------------0---------3-----3-
5-2-----------------------------------2---------------------------------5-----3-
6-1--------------------1--------------1--1------------------------------3-------
 tu ibas con el         yo iba con ella jugando hacer felices   por desesperados       


            E7            Am              Fm9             Am  
1------------0-------------0---------------0---------------0----
2------------0------------1--1-------------1---------------1----
3------------1-----------2----2------------0---------------2----
4------------0----------2-------2--------------------------2----
5------------2---------0---------0----3--------------------0----
6------------0--------------------------------------------------
 por no0 aguardar los sueños         por miedo  a quedar solos

                  F
Pero llegamos tarde
                C
Te vi y me viste
             Dm7         G7
Nos reconocimos enseguida
          C        E7           Am   FM9
Pero tarde, maldita sea la hora
                          Dm    Csus4
Que encontre lo que soñe,  Tarde.


Am                   Em          F   
Tanto soñarte y extrañarte sin tenerte
Gsus4         Csus4  C  G
Tanto inventarte
Am                      Em                 F
Tanto buscarte por las calles como un loco
G7          Csus4   C
sin encontrarte
F                  Am
Ya ahi va uno de tonto
F          Am
por desesperado
F              G           Csus4  C
Confundiendo amor con compañia
              E7                           F
Y ese miedo Idiota de verte viejo y sin pareja
                          G7                      C 
Te hace escoger con la cabeza, lo que es del corazon
E7                           F
Y no tengo nada contra ellos

La rabia es contra el tiempo 
        G7                  Csus4   F G7
Por ponerte junto a mi, Tarde.    



                   FM7(-5)                                                 Dm7        G7   Csus4 C
1-0---------------0----0--------------0------------------0------------------1---------3-----0-
2-0----------------0---0--------------0---------------0---------------------2---------3-----1-
3-2-----------------2--2--------------2-----------2-------------------------2---------4-----0-
4-2-----------------------------------2-------------------------------------0---------3-----3-
5-2-----------------------------------2-----------------------------------------------5-----3-
6-1--------------------1--------------1----------1------------------------------------3-------
 Ganas de huir         de no verte ni la sombra de pensar que esto fue un sueño o una pesadilla  
 


            E7            Am              Fm9             Am  
1------------0-------------0---------------0---------------0----
2------------0------------1--1-------------1---------------1----
3------------1-----------2----2------------0---------------2----
4------------0----------2-------2--------------------------2----
5------------2---------0---------0----3--------------------0----
6------------0--------------------------------------------------
        que nunca    aparesiste       que nunca haz      esxistido


                   FM7(-5)                                         Dm7        G7         Csus4 C
1-0---------------0----0--------------0------------------0----------1---------3------------0-
2-0----------------0---0--------------0---------------0-------------2---------3------------1-
3-2-----------------2--2--------------2-----------2-----------------2---------4------------0-
4-2-----------------------------------2-----------------------------0---------3------------3-
5-2-----------------------------------2---------------------------------------5------------3-
6-1--------------------1--------------1----------1----------------------------3---------------
Ganas de besarte        de coincidir con tigo   de acercarme      a ti y amarrarte en un abrazo 


            E7            Am              Fm9             Am  
1------------0-------------0---------------0---------------0----
2------------0------------1--1-------------1---------------1----
3------------1-----------2----2------------0---------------2----
4------------0----------2-------2--------------------------2----
5------------2---------0---------0----3--------------------0----
6------------0--------------------------------------------------
         de mirarte a los ojos       y decirte          bienvenida...


                  F
Pero llegamos tarde
                C                    ++++miyo++++
Te vi y me viste
             Dm7         G7
Nos reconocimos enseguida
          C        E7           Am   FM9
Pero tarde,     Quizas en otras vidas
    E7              Am
Quizas en otras muertes...



                   FM7(-5)                                         Dm7        G7         Csus4 C


Ricardo Arjona
Tarde
TAB

1-0---------------0----0--------------0------------------0----------1---------3------------0-
2-0----------------0---0--------------0---------------0-------------2---------3------------1-
3-2-----------------2--2--------------2-----------2-----------------2---------4------------0-
4-2-----------------------------------2-----------------------------0---------3------------3-
5-2-----------------------------------2---------------------------------------5------------3-
6-1--------------------1--------------1----------1----------------------------3---------------
Que ganas de rozarte    que ganas de tocarte     de acercarme     a ti    Golpearte con un beso


            E7            Am              Fm9             Am  
1------------0-------------0---------------0---------------0-------0-
2------------0------------1--1-------------1---------------1------0--
3------------1-----------2----2------------0---------------2-----2---
4------------0----------2-------2--------------------------2----2----
5------------2---------0---------0----3--------------------0---2-----
6------------0------------------------------------------------1------
      de fugarnos  para siempre      sin daños  ha terceros...


          123456
 FM7(-5)  122200
 Dm7      xx0211
 Csus4    x33010
 E7+9   020103
 Gsus4    3x0013
 FM9      03x010

Fuente: tusacordes.com