a b c d e f g h i j k l m n o p q r s t u v w x y z 0-9

Tocando Fondo (intro)

Ricardo Arjona

			
RIFF:1
E|-10b12-10--------------------------|
B|----------15-12-------------10-----|
G|----------------14-12-12-14--------|
d|-----------------------------------|
A|-----------------------------------|
E|-----------------------------------|



RIFF:2
E|-10b12-10---------------------------------------------------------------|
B|----------15-12-------------10-12b13-12-13-12-------------10-12/13-12---|
G|----------------14-12-12-14-------------------14-12-12-14---------------|
d|------------------------------------------------------------------------|
A|------------------------------------------------------------------------|
E|------------------------------------------------------------------------|

Fuente: tusacordes.com