a b c d e f g h i j k l m n o p q r s t u v w x y z 0-9

Tiempo En Una Botella

Ricardo Arjona

Dm
Gm
A7
D
Bm
G
			
 Este es un cover de Jim Croce

Intro
Dm  A+5  Dm7  Dm6 [2 veces] Gm  A7 

Dm          A+5          Dm7   Dm6
Si pudiera detener el tiempo
  Gm                      A7
y echarle un vistazo al pasado,
Dm          A+5          Dm7         Dm6
si el ayer fuera el hoy o el hoy el ayer
 Gm                    A7
si pudiera volverte a ver;
Dm              A+5            Dm7      Dm6
Si pudiera una botella guardar tiempos
Gm                         A7
y acudir a ellos an la tristeza,
Dm            A+5           Dm7       Dm6
buscaría en cada uno de los días del ayer
  Gm                  A7
procurando volverte a ver . . .

CORO
           D         D/C#           Bm
Y es que estoy aqui buscando en el ayer
Bm/A                 G   A7
lo que no encuentro hoy,
    D        D/C#     Bm
el tiempo en una botella
Bm/A                         G    A7
para acudir a ella cuando quiera.

PUENTE [igual que el intro]

Dm          A+5             Dm7   Dm6
Buscaría en la botella tu sonrisa
    Gm                      A7
y tu forma de andar por el mundo
Dm          A+5         Dm7                Dm6
si pudiera una botella guardar tiempos de ayer
Gm                  A7
buscaría volverte a ver.

[Se repite el coro]


Para el intro se hace lo que sigue:
E-----10---10-------9---9-------8---8-------7---7----
B-----6----6--------6---6-------6---6-------6---6----
G---7----7----7---7---7---7---7---7---7---7---7---7--
D-0-------------0-----------0-----------0------------
A----------------------------------------------------
E----------------------------------------------------
                 [ DOS VECES ]

E--3-------3--------------0--3--1--0-----------------
B--X--5--6---6--5---2--3-----------2-----------------
G--3------------3------------3--2--0-----------------
D--X-------------------------------2-----------------
A--X------------5---0--2--4--------0-----------------
E--3-------------------------------X-----------------

Espero este clara la tab de la intro. 

Fuente original ATAME [www.atame.org]
Colaborador original: Jorge Vargas Johnston [jorvarjohn@yahoo.com.mx]

Fuente: tusacordes.com