a b c d e f g h i j k l m n o p q r s t u v w x y z 0-9

Quien Diria

Ricardo Arjona

			
Esto es el intro de la canción, está tocado en
piano, pero lo pasé a guitarra.

e|1|-------3-5-7--5-----10--5-5-7--3-
b|2|-------3------7-7---12--7-7-7--3-
g|3|-----4--------7--7-------------4-
D|4|----5----------------------------
A|5|---5-----------------------------
E|6|--3------------------------------

e|1|-------3-5-7--5-----10--5-5-7--3---------|
b|2|-------3------7-7---12--7-7-7--3---------|
g|3|-----4--------7--7-------------4---------|
D|4|----5-----------------------------5------|
A|5|---5---------------------------------5---|
E|6|--3-------------------------------------3|
                                           |*|

|*| Inicio de la canción

En cuanto al resto de la canción, creo que la mejor 
colaboración de los acordes es la de Alex Rázuri Urtecho.
Saludos a mis amigos Jorge, Balú, Paola y Cosío.

Fuente original ATAME [www.atame.org]
Colaborador original: Dmitri Gryzlov [dmitrigryzlov@yahoo.com.mx]

Fuente: tusacordes.com